  0
SECTION
  2
HEADER
  9
$ACADVER
  1
AC1015
  9
$ACADMAINTVER
 70
     6
  9
$DWGCODEPAGE
  3
ANSI_1254
  9
$INSBASE
 10
0.0
 20
0.0
 30
0.0
  9
$EXTMIN
 10
0.0
 20
0.0
 30
0.0
  9
$EXTMAX
 10
279.4
 20
215.9
 30
0.0
  9
$LIMMIN
 10
0.0
 20
0.0
  9
$LIMMAX
 10
279.4
 20
215.9
  9
$ORTHOMODE
 70
     0
  9
$REGENMODE
 70
     1
  9
$FILLMODE
 70
     1
  9
$QTEXTMODE
 70
     0
  9
$MIRRTEXT
 70
     1
  9
$LTSCALE
 40
1.0
  9
$ATTMODE
 70
     1
  9
$TEXTSIZE
 40
3.5
  9
$TRACEWID
 40
1.0
  9
$TEXTSTYLE
  7
Standard
  9
$CLAYER
  8
0
  9
$CELTYPE
  6
ByLayer
  9
$CECOLOR
 62
   256
  9
$CELTSCALE
 40
1.0
  9
$DISPSILH
 70
     0
  9
$DIMSCALE
 40
1.0
  9
$DIMASZ
 40
3.5
  9
$DIMEXO
 40
1.0
  9
$DIMDLI
 40
3.75
  9
$DIMRND
 40
0.0
  9
$DIMDLE
 40
0.0
  9
$DIMEXE
 40
1.0
  9
$DIMTP
 40
0.0
  9
$DIMTM
 40
0.0
  9
$DIMTXT
 40
3.5
  9
$DIMCEN
 40
2.5
  9
$DIMTSZ
 40
0.0
  9
$DIMTOL
 70
     0
  9
$DIMLIM
 70
     0
  9
$DIMTIH
 70
     1
  9
$DIMTOH
 70
     1
  9
$DIMSE1
 70
     0
  9
$DIMSE2
 70
     0
  9
$DIMTAD
 70
     1
  9
$DIMZIN
 70
     0
  9
$DIMBLK
  1

  9
$DIMASO
 70
     1
  9
$DIMSHO
 70
     1
  9
$DIMPOST
  1

  9
$DIMAPOST
  1

  9
$DIMALT
 70
     0
  9
$DIMALTD
 70
     3
  9
$DIMALTF
 40
0.0393700787
  9
$DIMLFAC
 40
1.0
  9
$DIMTOFL
 70
     1
  9
$DIMTVP
 40
0.0
  9
$DIMTIX
 70
     0
  9
$DIMSOXD
 70
     0
  9
$DIMSAH
 70
     0
  9
$DIMBLK1
  1

  9
$DIMBLK2
  1

  9
$DIMSTYLE
  2
ISO-25
  9
$DIMCLRD
 70
     0
  9
$DIMCLRE
 70
     0
  9
$DIMCLRT
 70
     0
  9
$DIMTFAC
 40
1.0
  9
$DIMGAP
 40
1.524
  9
$DIMJUST
 70
     0
  9
$DIMSD1
 70
     0
  9
$DIMSD2
 70
     0
  9
$DIMTOLJ
 70
     0
  9
$DIMTZIN
 70
     0
  9
$DIMALTZ
 70
     0
  9
$DIMALTTZ
 70
     0
  9
$DIMUPT
 70
     0
  9
$DIMDEC
 70
     2
  9
$DIMTDEC
 70
     2
  9
$DIMALTU
 70
     2
  9
$DIMALTTD
 70
     3
  9
$DIMTXSTY
  7
Standard
  9
$DIMAUNIT
 70
     0
  9
$DIMADEC
 70
     2
  9
$DIMALTRND
 40
0.0
  9
$DIMAZIN
 70
     0
  9
$DIMDSEP
 70
    44
  9
$DIMATFIT
 70
     3
  9
$DIMFRAC
 70
     0
  9
$DIMLDRBLK
  1

  9
$DIMLUNIT
 70
     2
  9
$DIMLWD
 70
    -2
  9
$DIMLWE
 70
    -2
  9
$DIMTMOVE
 70
     0
  9
$LUNITS
 70
     2
  9
$LUPREC
 70
     2
  9
$SKETCHINC
 40
1.0
  9
$FILLETRAD
 40
10.0
  9
$AUNITS
 70
     0
  9
$AUPREC
 70
     2
  9
$MENU
  1
.
  9
$ELEVATION
 40
0.0
  9
$PELEVATION
 40
0.0
  9
$THICKNESS
 40
0.0
  9
$LIMCHECK
 70
     0
  9
$CHAMFERA
 40
0.0
  9
$CHAMFERB
 40
0.0
  9
$CHAMFERC
 40
0.0
  9
$CHAMFERD
 40
0.0
  9
$SKPOLY
 70
     0
  9
$TDCREATE
 40
2459935.709525764
  9
$TDUCREATE
 40
2459935.584525764
  9
$TDUPDATE
 40
2459935.709525949
  9
$TDUUPDATE
 40
2459935.584525949
  9
$TDINDWG
 40
0.0000000116
  9
$TDUSRTIMER
 40
0.0000000116
  9
$USRTIMER
 70
     1
  9
$ANGBASE
 50
0.0
  9
$ANGDIR
 70
     0
  9
$PDMODE
 70
     0
  9
$PDSIZE
 40
-1.0
  9
$PLINEWID
 40
0.0
  9
$SPLFRAME
 70
     0
  9
$SPLINETYPE
 70
     6
  9
$SPLINESEGS
 70
     8
  9
$HANDSEED
  5
12B
  9
$SURFTAB1
 70
     6
  9
$SURFTAB2
 70
     6
  9
$SURFTYPE
 70
     6
  9
$SURFU
 70
     6
  9
$SURFV
 70
     6
  9
$UCSBASE
  2

  9
$UCSNAME
  2

  9
$UCSORG
 10
0.0
 20
0.0
 30
0.0
  9
$UCSXDIR
 10
1.0
 20
0.0
 30
0.0
  9
$UCSYDIR
 10
0.0
 20
1.0
 30
0.0
  9
$UCSORTHOREF
  2

  9
$UCSORTHOVIEW
 70
     0
  9
$UCSORGTOP
 10
0.0
 20
0.0
 30
0.0
  9
$UCSORGBOTTOM
 10
0.0
 20
0.0
 30
0.0
  9
$UCSORGLEFT
 10
0.0
 20
0.0
 30
0.0
  9
$UCSORGRIGHT
 10
0.0
 20
0.0
 30
0.0
  9
$UCSORGFRONT
 10
0.0
 20
0.0
 30
0.0
  9
$UCSORGBACK
 10
0.0
 20
0.0
 30
0.0
  9
$PUCSBASE
  2

  9
$PUCSNAME
  2

  9
$PUCSORG
 10
0.0
 20
0.0
 30
0.0
  9
$PUCSXDIR
 10
1.0
 20
0.0
 30
0.0
  9
$PUCSYDIR
 10
0.0
 20
1.0
 30
0.0
  9
$PUCSORTHOREF
  2

  9
$PUCSORTHOVIEW
 70
     0
  9
$PUCSORGTOP
 10
0.0
 20
0.0
 30
0.0
  9
$PUCSORGBOTTOM
 10
0.0
 20
0.0
 30
0.0
  9
$PUCSORGLEFT
 10
0.0
 20
0.0
 30
0.0
  9
$PUCSORGRIGHT
 10
0.0
 20
0.0
 30
0.0
  9
$PUCSORGFRONT
 10
0.0
 20
0.0
 30
0.0
  9
$PUCSORGBACK
 10
0.0
 20
0.0
 30
0.0
  9
$USERI1
 70
     0
  9
$USERI2
 70
     0
  9
$USERI3
 70
     0
  9
$USERI4
 70
     0
  9
$USERI5
 70
     0
  9
$USERR1
 40
0.0
  9
$USERR2
 40
0.0
  9
$USERR3
 40
0.0
  9
$USERR4
 40
0.0
  9
$USERR5
 40
0.0
  9
$WORLDVIEW
 70
     1
  9
$SHADEDGE
 70
     3
  9
$SHADEDIF
 70
    70
  9
$TILEMODE
 70
     1
  9
$MAXACTVP
 70
    64
  9
$PINSBASE
 10
0.0
 20
0.0
 30
0.0
  9
$PLIMCHECK
 70
     0
  9
$PEXTMIN
 10
1.0000000000E+20
 20
1.0000000000E+20
 30
1.0000000000E+20
  9
$PEXTMAX
 10
-1.0000000000E+20
 20
-1.0000000000E+20
 30
-1.0000000000E+20
  9
$PLIMMIN
 10
0.0
 20
0.0
  9
$PLIMMAX
 10
420.0
 20
297.0
  9
$UNITMODE
 70
     0
  9
$VISRETAIN
 70
     1
  9
$PLINEGEN
 70
     0
  9
$PSLTSCALE
 70
     1
  9
$TREEDEPTH
 70
  3020
  9
$CMLSTYLE
  2
Standard
  9
$CMLJUST
 70
     0
  9
$CMLSCALE
 40
20.0
  9
$PROXYGRAPHICS
 70
     1
  9
$MEASUREMENT
 70
     1
  9
$CELWEIGHT
370
    -1
  9
$ENDCAPS
280
     0
  9
$JOINSTYLE
280
     0
  9
$LWDISPLAY
290
     1
  9
$INSUNITS
 70
     4
  9
$HYPERLINKBASE
  1

  9
$STYLESHEET
  1

  9
$XEDIT
290
     1
  9
$CEPSNTYPE
380
     0
  9
$PSTYLEMODE
290
     1
  9
$FINGERPRINTGUID
  2
{d4a74149-dfd9-43ac-ac66-dc4069cfdb09}
  9
$VERSIONGUID
  2
{FAEB1C32-E019-11D5-929B-00C0DF256EC4}
  9
$EXTNAMES
290
     1
  9
$PSVPSCALE
 40
0.0
  9
$OLESTARTUP
290
     0
  0
ENDSEC
  0
SECTION
  2
CLASSES
  0
CLASS
  1
ACDBDICTIONARYWDFLT
  2
AcDbDictionaryWithDefault
  3
ObjectDBX Classes
 90
        0
280
     0
281
     0
  0
CLASS
  1
VISUALSTYLE
  2
AcDbVisualStyle
  3
ObjectDBX Classes
 90
     4095
280
     0
281
     0
  0
CLASS
  1
MATERIAL
  2
AcDbMaterial
  3
ObjectDBX Classes
 90
     1153
280
     0
281
     0
  0
CLASS
  1
SCALE
  2
AcDbScale
  3
ObjectDBX Classes
 90
     1153
280
     0
281
     0
  0
CLASS
  1
TABLESTYLE
  2
AcDbTableStyle
  3
ObjectDBX Classes
 90
     4095
280
     0
281
     0
  0
CLASS
  1
MLEADERSTYLE
  2
AcDbMLeaderStyle
  3
ACDB_MLEADERSTYLE_CLASS
 90
     4095
280
     0
281
     0
  0
CLASS
  1
SUN
  2
AcDbSun
  3
SCENEOE
 90
     1153
280
     0
281
     0
  0
CLASS
  1
ACDBPLACEHOLDER
  2
AcDbPlaceHolder
  3
ObjectDBX Classes
 90
        0
280
     0
281
     0
  0
CLASS
  1
LAYOUT
  2
AcDbLayout
  3
ObjectDBX Classes
 90
        0
280
     0
281
     0
  0
ENDSEC
  0
SECTION
  2
TABLES
  0
TABLE
  2
VPORT
  5
8
330
0
100
AcDbSymbolTable
 70
     1
  0
VPORT
  5
29
330
8
100
AcDbSymbolTableRecord
100
AcDbViewportTableRecord
  2
*Active
 70
     0
 10
0.0
 20
0.0
 11
1.0
 21
1.0
 12
139.7
 22
107.95
 13
0.0
 23
0.0
 14
10.0
 24
10.0
 15
10.0
 25
10.0
 16
0.0
 26
0.0
 36
1.0
 17
0.0
 27
0.0
 37
0.0
 40
215.9
 41
1.2941176471
 42
50.0
 43
0.0
 44
0.0
 50
0.0
 51
0.0
 71
     0
 72
  2000
 73
     1
 74
     3
 75
     0
 76
     0
 77
     0
 78
     0
281
     0
 65
     1
110
0.0
120
0.0
130
0.0
111
1.0
121
0.0
131
0.0
112
0.0
122
1.0
132
0.0
 79
     0
146
0.0
  0
ENDTAB
  0
TABLE
  2
LTYPE
  5
5
330
0
100
AcDbSymbolTable
 70
     6
  0
LTYPE
  5
14
330
5
100
AcDbSymbolTableRecord
100
AcDbLinetypeTableRecord
  2
ByBlock
 70
     0
  3

 72
    65
 73
     0
 40
0.0
  0
LTYPE
  5
15
330
5
100
AcDbSymbolTableRecord
100
AcDbLinetypeTableRecord
  2
ByLayer
 70
     0
  3

 72
    65
 73
     0
 40
0.0
  0
LTYPE
  5
16
330
5
100
AcDbSymbolTableRecord
100
AcDbLinetypeTableRecord
  2
Continuous
 70
     0
  3
Solid line
 72
    65
 73
     0
 40
0.0
  0
LTYPE
  5
6E
330
5
100
AcDbSymbolTableRecord
100
AcDbLinetypeTableRecord
  2
HIDDEN
 70
     0
  3
Hidden __ __ __ __ __ __ __ __ __ __ __ __ __ __
 72
    65
 73
     2
 40
1.905
 49
1.27
 74
     0
 49
-0.635
 74
     0
  0
LTYPE
  5
6F
330
5
100
AcDbSymbolTableRecord
100
AcDbLinetypeTableRecord
  2
PHANTOM
 70
     0
  3
Phantom ______  __  __  ______  __  __  ______
 72
    65
 73
     6
 40
12.7
 49
6.35
 74
     0
 49
-1.27
 74
     0
 49
1.27
 74
     0
 49
-1.27
 74
     0
 49
1.27
 74
     0
 49
-1.27
 74
     0
  0
LTYPE
  5
70
330
5
100
AcDbSymbolTableRecord
100
AcDbLinetypeTableRecord
  2
CENTER
 70
     0
  3
Center ____ _ ____ _ ____ _ ____ _ ____ _ ____
 72
    65
 73
     4
 40
10.16
 49
6.35
 74
     0
 49
-1.27
 74
     0
 49
1.27
 74
     0
 49
-1.27
 74
     0
  0
LTYPE
  5
71
330
5
100
AcDbSymbolTableRecord
100
AcDbLinetypeTableRecord
  2
CENTERX2
 70
     0
  3
Center (2x) ________  __  ________  __  _____
 72
    65
 73
     4
 40
20.32
 49
12.7
 74
     0
 49
-2.54
 74
     0
 49
2.54
 74
     0
 49
-2.54
 74
     0
  0
LTYPE
  5
72
330
5
100
AcDbSymbolTableRecord
100
AcDbLinetypeTableRecord
  2
DOT2
 70
     0
  3
Dot (.5x) ........................................
 72
    65
 73
     2
 40
0.635
 49
0.0
 74
     0
 49
-0.635
 74
     0
  0
ENDTAB
  0
TABLE
  2
LAYER
  5
2
330
0
100
AcDbSymbolTable
 70
    17
  0
LAYER
  5
10
330
2
100
AcDbSymbolTableRecord
100
AcDbLayerTableRecord
  2
0
 70
     0
 62
     7
  6
Continuous
370
    -3
390
F
  0
LAYER
  5
73
330
2
100
AcDbSymbolTableRecord
100
AcDbLayerTableRecord
  2
FORMAT
 70
     0
 62
     7
  6
Continuous
370
    -3
390
F
  0
LAYER
  5
74
330
2
100
AcDbSymbolTableRecord
100
AcDbLayerTableRecord
  2
YARDIMCI_GEOMETRI
 70
     0
 62
    -6
  6
Continuous
290
     0
370
    -3
390
F
  0
LAYER
  5
75
330
2
100
AcDbSymbolTableRecord
100
AcDbLayerTableRecord
  2
SAYFA_CERCEVESI
 70
     0
 62
     7
  6
Continuous
370
    25
390
F
  0
LAYER
  5
76
330
2
100
AcDbSymbolTableRecord
100
AcDbLayerTableRecord
  2
ANTET
 70
     0
 62
     7
  6
Continuous
370
    -3
390
F
  0
LAYER
  5
77
330
2
100
AcDbSymbolTableRecord
100
AcDbLayerTableRecord
  2
OLCU
 70
     0
 62
   150
  6
Continuous
370
    -3
390
F
  0
LAYER
  5
78
330
2
100
AcDbSymbolTableRecord
100
AcDbLayerTableRecord
  2
METIN
 70
     0
 62
    96
  6
Continuous
370
    -3
390
F
  0
LAYER
  5
79
330
2
100
AcDbSymbolTableRecord
100
AcDbLayerTableRecord
  2
BALON
 70
     0
 62
     5
  6
Continuous
370
    -3
390
F
  0
LAYER
  5
7A
330
2
100
AcDbSymbolTableRecord
100
AcDbLayerTableRecord
  2
VURGU
 70
     0
 62
     7
  6
Continuous
370
    -3
390
F
  0
LAYER
  5
7B
330
2
100
AcDbSymbolTableRecord
100
AcDbLayerTableRecord
  2
SILIK
 70
     0
 62
     7
  6
Continuous
370
    -3
390
F
  0
LAYER
  5
7C
330
2
100
AcDbSymbolTableRecord
100
AcDbLayerTableRecord
  2
MODEL
 70
     0
 62
     7
  6
Continuous
370
    -3
390
F
  0
LAYER
  5
7D
330
2
100
AcDbSymbolTableRecord
100
AcDbLayerTableRecord
  2
DETAYLANDıRMA
 70
     0
 62
   190
  6
Continuous
370
    -3
390
F
  0
LAYER
  5
7E
330
2
100
AcDbSymbolTableRecord
100
AcDbLayerTableRecord
  2
TOLERANS
 70
     0
 62
   230
  6
Continuous
370
    -3
390
F
  0
LAYER
  5
7F
330
2
100
AcDbSymbolTableRecord
100
AcDbLayerTableRecord
  2
MERKEZ_CIZGILERI
 70
     0
 62
    30
  6
Continuous
370
    -3
390
F
  0
LAYER
  5
80
330
2
100
AcDbSymbolTableRecord
100
AcDbLayerTableRecord
  2
KESIT-DETAY_CIZGILERI
 70
     0
 62
     7
  6
Continuous
370
    -3
390
F
  0
LAYER
  5
81
330
2
100
AcDbSymbolTableRecord
100
AcDbLayerTableRecord
  2
\U+041E\U+0421\U+0415\U+0412\U+042B\U+0415
 70
     0
 62
     7
  6
Continuous
370
    -3
390
F
  0
LAYER
  5
82
330
2
100
AcDbSymbolTableRecord
100
AcDbLayerTableRecord
  2
\U+0412\U+041E\U+0414\U+042F\U+041D\U+042B\U+0415_\U+0417\U+041D\U+0410\U+041A\U+0418
 70
     0
 62
    11
  6
Continuous
370
    -3
390
F
  0
ENDTAB
  0
TABLE
  2
STYLE
  5
3
330
0
100
AcDbSymbolTable
 70
     1
  0
STYLE
  5
11
330
3
100
AcDbSymbolTableRecord
100
AcDbTextStyleTableRecord
  2
Standard
 70
     0
 40
0.0
 41
1.0
 50
0.0
 71
     0
 42
3.5
  3
txt
  4

  0
ENDTAB
  0
TABLE
  2
VIEW
  5
6
330
0
100
AcDbSymbolTable
 70
     0
  0
ENDTAB
  0
TABLE
  2
UCS
  5
7
330
0
100
AcDbSymbolTable
 70
     0
  0
ENDTAB
  0
TABLE
  2
APPID
  5
9
330
0
100
AcDbSymbolTable
 70
     1
  0
APPID
  5
12
330
9
100
AcDbSymbolTableRecord
100
AcDbRegAppTableRecord
  2
ACAD
 70
     0
  0
ENDTAB
  0
TABLE
  2
DIMSTYLE
  5
A
330
0
100
AcDbSymbolTable
 70
     1
100
AcDbDimStyleTable
  0
DIMSTYLE
105
27
330
A
100
AcDbSymbolTableRecord
100
AcDbDimStyleTableRecord
  2
ISO-25
 70
     0
 41
2.5
 42
0.625
 43
3.75
 44
1.25
 73
     0
 74
     0
 77
     1
 78
     8
140
2.5
141
2.5
143
0.0393700787
147
0.625
171
     3
172
     1
178
     0
271
     2
272
     2
274
     3
278
    44
283
     0
284
     8
340
11
  0
ENDTAB
  0
TABLE
  2
BLOCK_RECORD
  5
1
330
0
100
AcDbSymbolTable
 70
     2
  0
BLOCK_RECORD
  5
1F
330
1
100
AcDbSymbolTableRecord
100
AcDbBlockTableRecord
  2
*Model_Space
340
22
  0
BLOCK_RECORD
  5
1B
330
1
100
AcDbSymbolTableRecord
100
AcDbBlockTableRecord
  2
*Paper_Space
340
1E
  0
BLOCK_RECORD
  5
23
330
1
100
AcDbSymbolTableRecord
100
AcDbBlockTableRecord
  2
*Paper_Space0
340
26
  0
BLOCK_RECORD
  5
87
330
1
100
AcDbSymbolTableRecord
100
AcDbBlockTableRecord
  2
SW_CENTERMARKSYMBOL_0
340
0
102
{BLKREFS
331
92
102
}
  0
ENDTAB
  0
ENDSEC
  0
SECTION
  2
BLOCKS
  0
BLOCK
  5
20
330
1F
100
AcDbEntity
  8
0
100
AcDbBlockBegin
  2
*Model_Space
 70
     0
 10
0.0
 20
0.0
 30
0.0
  3
*Model_Space
  1

  0
ENDBLK
  5
21
330
1F
100
AcDbEntity
  8
0
100
AcDbBlockEnd
  0
BLOCK
  5
1C
330
1B
100
AcDbEntity
 67
     1
  8
0
100
AcDbBlockBegin
  2
*Paper_Space
 70
     0
 10
0.0
 20
0.0
 30
0.0
  3
*Paper_Space
  1

  0
ENDBLK
  5
1D
330
1B
100
AcDbEntity
 67
     1
  8
0
100
AcDbBlockEnd
  0
BLOCK
  5
24
330
23
100
AcDbEntity
  8
0
100
AcDbBlockBegin
  2
*Paper_Space0
 70
     0
 10
0.0
 20
0.0
 30
0.0
  3
*Paper_Space0
  1

  0
ENDBLK
  5
25
330
23
100
AcDbEntity
  8
0
100
AcDbBlockEnd
  0
BLOCK
  5
88
330
87
100
AcDbEntity
  8
0
100
AcDbBlockBegin
  2
SW_CENTERMARKSYMBOL_0
 70
     0
 10
0.0
 20
0.0
 30
0.0
  3
SW_CENTERMARKSYMBOL_0
  1

  0
LINE
  5
8A
330
87
100
AcDbEntity
  8
FORMAT
 62
     0
100
AcDbLine
 10
0.0
 20
0.0
 30
0.0
 11
0.0
 21
2.5
 31
0.0
  0
LINE
  5
8B
330
87
100
AcDbEntity
  8
FORMAT
 62
     0
100
AcDbLine
 10
0.0
 20
0.0
 30
0.0
 11
-2.5
 21
0.0
 31
0.0
  0
LINE
  5
8C
330
87
100
AcDbEntity
  8
FORMAT
 62
     0
100
AcDbLine
 10
0.0
 20
0.0
 30
0.0
 11
0.0
 21
-2.5
 31
0.0
  0
LINE
  5
8D
330
87
100
AcDbEntity
  8
FORMAT
 62
     0
100
AcDbLine
 10
0.0
 20
0.0
 30
0.0
 11
2.5
 21
0.0
 31
0.0
  0
LINE
  5
8E
330
87
100
AcDbEntity
  8
FORMAT
 62
     0
100
AcDbLine
 10
0.0
 20
5.0
 30
0.0
 11
0.0
 21
47.5
 31
0.0
  0
LINE
  5
8F
330
87
100
AcDbEntity
  8
FORMAT
 62
     0
100
AcDbLine
 10
-5.0
 20
0.0
 30
0.0
 11
-47.5
 21
0.0
 31
0.0
  0
LINE
  5
90
330
87
100
AcDbEntity
  8
FORMAT
 62
     0
100
AcDbLine
 10
0.0
 20
-5.0
 30
0.0
 11
0.0
 21
-47.5
 31
0.0
  0
LINE
  5
91
330
87
100
AcDbEntity
  8
FORMAT
 62
     0
100
AcDbLine
 10
5.0
 20
0.0
 30
0.0
 11
47.5
 21
0.0
 31
0.0
  0
ENDBLK
  5
89
330
87
100
AcDbEntity
  8
0
100
AcDbBlockEnd
  0
ENDSEC
  0
SECTION
  2
ENTITIES
  0
CIRCLE
  5
83
330
1F
100
AcDbEntity
  8
0
  6
Continuous
 62
     7
370
    25
100
AcDbCircle
 10
144.5628874081
 20
114.4207091205
 30
0.0
 40
36.8
  0
CIRCLE
  5
84
330
1F
100
AcDbEntity
  8
0
  6
Continuous
 62
     7
370
    25
100
AcDbCircle
 10
144.5628874081
 20
114.4207091205
 30
0.0
 40
45.00000000000001
  0
CIRCLE
  5
85
330
1F
100
AcDbEntity
  8
0
  6
Continuous
 62
     7
370
    25
100
AcDbCircle
 10
144.5628874081
 20
114.4207091205
 30
0.0
 40
64.0
  0
CIRCLE
  5
86
330
1F
100
AcDbEntity
  8
0
  6
Continuous
 62
     7
370
    25
100
AcDbCircle
 10
144.5628874081
 20
114.4207091205
 30
0.0
 40
64.5
  0
INSERT
  5
92
330
1F
100
AcDbEntity
  8
FORMAT
 62
     7
100
AcDbBlockReference
  2
SW_CENTERMARKSYMBOL_0
 10
144.5628874081
 20
114.4207091205
 30
0.0
  0
LINE
  5
93
330
1F
100
AcDbEntity
  8
0
  6
Continuous
 62
     7
370
    25
100
AcDbLine
 10
209.0628874081
 20
261.7495479149
 30
0.0
 11
209.0628874081
 21
305.2495479149
 31
0.0
  0
LINE
  5
94
330
1F
100
AcDbEntity
  8
0
  6
Continuous
 62
     7
370
    25
100
AcDbLine
 10
80.0628874081
 20
305.2495479149
 30
0.0
 11
80.0628874081
 21
261.7495479149
 31
0.0
  0
ARC
  5
95
330
1F
100
AcDbEntity
  8
0
  6
Continuous
 62
     7
370
    25
100
AcDbCircle
 10
208.5628874081
 20
305.2495479149
 30
0.0
 40
0.5
100
AcDbArc
 50
0.0
 51
90.0
  0
ARC
  5
96
330
1F
100
AcDbEntity
  8
0
  6
Continuous
 62
     7
370
    25
100
AcDbCircle
 10
80.5628874081
 20
305.2495479149
 30
0.0
 40
0.5
100
AcDbArc
 50
90.0
 51
180.0
  0
LINE
  5
97
330
1F
100
AcDbEntity
  8
0
  6
Continuous
 62
     7
370
    25
100
AcDbLine
 10
189.5628874081
 20
305.7495479149
 30
0.0
 11
189.5628874081
 21
393.7495479149
 31
0.0
  0
LINE
  5
98
330
1F
100
AcDbEntity
  8
0
  6
Continuous
 62
     7
370
    25
100
AcDbLine
 10
99.5628874081
 20
393.7495479149
 30
0.0
 11
99.5628874081
 21
305.7495479149
 31
0.0
  0
LINE
  5
99
330
1F
100
AcDbEntity
  8
0
  6
Continuous
 62
     7
370
    25
100
AcDbLine
 10
209.0628874081
 20
261.7495479149
 30
0.0
 11
80.0628874081
 21
261.7495479149
 31
0.0
  0
LINE
  5
9A
330
1F
100
AcDbEntity
  8
0
  6
Continuous
 62
     7
370
    25
100
AcDbLine
 10
208.562887408
 20
305.7495479149
 30
0.0
 11
80.5628874081
 21
305.7495479149
 31
0.0
  0
LINE
  5
9B
330
1F
100
AcDbEntity
  8
0
  6
Continuous
 62
     7
370
    25
100
AcDbLine
 10
98.0628874081
 20
260.7495479149
 30
0.0
 11
105.3970933657
 21
260.7495479149
 31
0.0
  0
LINE
  5
9C
330
1F
100
AcDbEntity
  8
0
  6
Continuous
 62
     7
370
    25
100
AcDbLine
 10
98.0628874081
 20
261.7495479149
 30
0.0
 11
98.0628874081
 21
260.7495479149
 31
0.0
  0
LINE
  5
9D
330
1F
100
AcDbEntity
  8
0
  6
Continuous
 62
     7
370
    25
100
AcDbLine
 10
144.5628874081
 20
261.7495479149
 30
0.0
 11
144.5628874081
 21
260.7495479149
 31
0.0
  0
LINE
  5
9E
330
1F
100
AcDbEntity
  8
0
  6
Continuous
 62
     7
370
    25
100
AcDbLine
 10
137.2286814505
 20
260.7495479149
 30
0.0
 11
144.5628874081
 21
260.7495479149
 31
0.0
  0
LINE
  5
9F
330
1F
100
AcDbEntity
  8
0
  6
Continuous
 62
     7
370
    25
100
AcDbLine
 10
137.2286814505
 20
249.7495479149
 30
0.0
 11
137.2286814505
 21
260.7495479149
 31
0.0
  0
LINE
  5
A0
330
1F
100
AcDbEntity
  8
0
  6
Continuous
 62
     7
370
    25
100
AcDbLine
 10
137.2286814505
 20
249.7495479149
 30
0.0
 11
105.3970933657
 21
249.7495479149
 31
0.0
  0
LINE
  5
A1
330
1F
100
AcDbEntity
  8
0
  6
Continuous
 62
     7
370
    25
100
AcDbLine
 10
105.3970933657
 20
260.7495479149
 30
0.0
 11
105.3970933657
 21
249.7495479149
 31
0.0
  0
LINE
  5
A2
330
1F
100
AcDbEntity
  8
0
  6
Continuous
 62
     7
370
    25
100
AcDbLine
 10
144.5628874081
 20
260.7495479149
 30
0.0
 11
151.8970933658
 21
260.7495479149
 31
0.0
  0
LINE
  5
A3
330
1F
100
AcDbEntity
  8
0
  6
Continuous
 62
     7
370
    25
100
AcDbLine
 10
191.0628874081
 20
261.7495479149
 30
0.0
 11
191.0628874081
 21
260.7495479149
 31
0.0
  0
LINE
  5
A4
330
1F
100
AcDbEntity
  8
0
  6
Continuous
 62
     7
370
    25
100
AcDbLine
 10
183.7286814505
 20
260.7495479149
 30
0.0
 11
191.0628874081
 21
260.7495479149
 31
0.0
  0
LINE
  5
A5
330
1F
100
AcDbEntity
  8
0
  6
Continuous
 62
     7
370
    25
100
AcDbLine
 10
183.7286814505
 20
249.7495479149
 30
0.0
 11
183.7286814505
 21
260.7495479149
 31
0.0
  0
LINE
  5
A6
330
1F
100
AcDbEntity
  8
0
  6
Continuous
 62
     7
370
    25
100
AcDbLine
 10
183.7286814505
 20
249.7495479149
 30
0.0
 11
151.8970933657
 21
249.7495479149
 31
0.0
  0
LINE
  5
A7
330
1F
100
AcDbEntity
  8
0
  6
Continuous
 62
     7
370
    25
100
AcDbLine
 10
151.8970933658
 20
260.7495479149
 30
0.0
 11
151.8970933657
 21
249.7495479149
 31
0.0
  0
LINE
  5
A8
330
1F
100
AcDbEntity
  8
0
  6
Continuous
 62
     7
370
    25
100
AcDbLine
 10
151.8970933657
 20
249.7495479149
 30
0.0
 11
137.2286814505
 21
249.7495479149
 31
0.0
  0
LINE
  5
A9
330
1F
100
AcDbEntity
  8
0
  6
Continuous
 62
     7
370
    25
100
AcDbLine
 10
189.5628874081
 20
393.7495479149
 30
0.0
 11
99.5628874081
 21
393.7495479149
 31
0.0
  0
LINE
  5
AA
330
1F
100
AcDbEntity
  8
0
  6
Continuous
 62
     7
370
    25
100
AcDbLine
 10
191.0628874081
 20
260.7495479149
 30
0.0
 11
191.0628874081
 21
249.7495479149
 31
0.0
  0
LINE
  5
AB
330
1F
100
AcDbEntity
  8
0
  6
Continuous
 62
     7
370
    25
100
AcDbLine
 10
191.0628874081
 20
249.7495479149
 30
0.0
 11
183.7286814505
 21
249.7495479149
 31
0.0
  0
LINE
  5
AC
330
1F
100
AcDbEntity
  8
0
  6
Continuous
 62
     7
370
    25
100
AcDbLine
 10
98.0628874081
 20
249.7495479149
 30
0.0
 11
98.0628874081
 21
260.7495479149
 31
0.0
  0
LINE
  5
AD
330
1F
100
AcDbEntity
  8
0
  6
Continuous
 62
     7
370
    25
100
AcDbLine
 10
105.3970933657
 20
249.7495479149
 30
0.0
 11
98.0628874081
 21
249.7495479149
 31
0.0
  0
LINE
  5
AE
330
1F
100
AcDbEntity
  8
0
  6
Continuous
 62
     1
370
    25
100
AcDbLine
 10
209.0628874081
 20
305.2495479149
 30
0.0
 11
80.0628874081
 21
305.2495479149
 31
0.0
  0
LINE
  5
AF
330
1F
100
AcDbEntity
  8
0
  6
Continuous
 62
     7
370
    25
100
AcDbLine
 10
325.0656996029
 20
49.9207091205
 30
0.0
 11
368.5656996029
 21
49.9207091205
 31
0.0
  0
LINE
  5
B0
330
1F
100
AcDbEntity
  8
0
  6
Continuous
 62
     7
370
    25
100
AcDbLine
 10
368.5656996029
 20
178.9207091205
 30
0.0
 11
325.0656996029
 21
178.9207091205
 31
0.0
  0
ARC
  5
B1
330
1F
100
AcDbEntity
  8
0
  6
Continuous
 62
     7
370
    25
100
AcDbCircle
 10
368.5656996029
 20
50.4207091205
 30
0.0
 40
0.5
100
AcDbArc
 50
270.0
 51
0.0
  0
ARC
  5
B2
330
1F
100
AcDbEntity
  8
0
  6
Continuous
 62
     7
370
    25
100
AcDbCircle
 10
368.5656996029
 20
178.4207091205
 30
0.0
 40
0.5
100
AcDbArc
 50
0.0
 51
90.0
  0
LINE
  5
B3
330
1F
100
AcDbEntity
  8
0
  6
Continuous
 62
     7
370
    25
100
AcDbLine
 10
369.0656996029
 20
69.4207091205
 30
0.0
 11
457.0656996029
 21
69.4207091205
 31
0.0
  0
LINE
  5
B4
330
1F
100
AcDbEntity
  8
0
  6
Continuous
 62
     7
370
    25
100
AcDbLine
 10
457.0656996029
 20
159.4207091205
 30
0.0
 11
369.0656996029
 21
159.4207091205
 31
0.0
  0
LINE
  5
B5
330
1F
100
AcDbEntity
  8
0
  6
Continuous
 62
     7
370
    25
100
AcDbLine
 10
313.0656996029
 20
64.4207091205
 30
0.0
 11
324.0656996029
 21
64.4207091205
 31
0.0
  0
LINE
  5
B6
330
1F
100
AcDbEntity
  8
0
  6
Continuous
 62
     7
370
    25
100
AcDbLine
 10
324.0656996029
 20
164.4207091205
 30
0.0
 11
313.0656996029
 21
164.4207091205
 31
0.0
  0
LINE
  5
B7
330
1F
100
AcDbEntity
  8
0
  6
Continuous
 62
     7
370
    25
100
AcDbLine
 10
325.0656996029
 20
114.4207091205
 30
0.0
 11
325.0656996029
 21
178.9207091205
 31
0.0
  0
LINE
  5
B8
330
1F
100
AcDbEntity
  8
0
  6
Continuous
 62
     7
370
    25
100
AcDbLine
 10
325.0656996029
 20
49.9207091205
 30
0.0
 11
325.0656996029
 21
114.4207091205
 31
0.0
  0
LINE
  5
B9
330
1F
100
AcDbEntity
  8
0
  6
Continuous
 62
     7
370
    25
100
AcDbLine
 10
369.0656996029
 20
114.4207091205
 30
0.0
 11
369.0656996029
 21
178.4207091205
 31
0.0
  0
LINE
  5
BA
330
1F
100
AcDbEntity
  8
0
  6
Continuous
 62
     7
370
    25
100
AcDbLine
 10
369.0656996029
 20
50.4207091205
 30
0.0
 11
369.0656996029
 21
114.4207091205
 31
0.0
  0
LINE
  5
BB
330
1F
100
AcDbEntity
  8
0
  6
Continuous
 62
     7
370
    25
100
AcDbLine
 10
324.0656996029
 20
87.5739216032
 30
0.0
 11
324.0656996029
 21
83.3395158193
 31
0.0
  0
LINE
  5
BC
330
1F
100
AcDbEntity
  8
0
  6
Continuous
 62
     7
370
    25
100
AcDbLine
 10
325.0656996029
 20
87.5739216032
 30
0.0
 11
324.0656996029
 21
87.5739216032
 31
0.0
  0
LINE
  5
BD
330
1F
100
AcDbEntity
  8
0
  6
Continuous
 62
     7
370
    25
100
AcDbLine
 10
325.0656996029
 20
60.7271340859
 30
0.0
 11
324.0656996029
 21
60.7271340859
 31
0.0
  0
LINE
  5
BE
330
1F
100
AcDbEntity
  8
0
  6
Continuous
 62
     7
370
    25
100
AcDbLine
 10
324.0656996029
 20
64.9615398698
 30
0.0
 11
324.0656996029
 21
60.7271340859
 31
0.0
  0
LINE
  5
BF
330
1F
100
AcDbEntity
  8
0
  6
Continuous
 62
     7
370
    25
100
AcDbLine
 10
313.0656996029
 20
64.9615398698
 30
0.0
 11
324.0656996029
 21
64.9615398698
 31
0.0
  0
LINE
  5
C0
330
1F
100
AcDbEntity
  8
0
  6
Continuous
 62
     7
370
    25
100
AcDbLine
 10
313.0656996029
 20
64.9615398698
 30
0.0
 11
313.0656996029
 21
83.3395158193
 31
0.0
  0
LINE
  5
C1
330
1F
100
AcDbEntity
  8
0
  6
Continuous
 62
     7
370
    25
100
AcDbLine
 10
324.0656996029
 20
83.3395158193
 30
0.0
 11
313.0656996029
 21
83.3395158193
 31
0.0
  0
LINE
  5
C2
330
1F
100
AcDbEntity
  8
0
  6
Continuous
 62
     7
370
    25
100
AcDbLine
 10
324.0656996029
 20
141.2674966379
 30
0.0
 11
324.0656996029
 21
132.79868507
 31
0.0
  0
LINE
  5
C3
330
1F
100
AcDbEntity
  8
0
  6
Continuous
 62
     7
370
    25
100
AcDbLine
 10
325.0656996029
 20
141.2674966379
 30
0.0
 11
324.0656996029
 21
141.2674966379
 31
0.0
  0
LINE
  5
C4
330
1F
100
AcDbEntity
  8
0
  6
Continuous
 62
     7
370
    25
100
AcDbLine
 10
324.0656996029
 20
96.0427331711
 30
0.0
 11
324.0656996029
 21
87.5739216032
 31
0.0
  0
LINE
  5
C5
330
1F
100
AcDbEntity
  8
0
  6
Continuous
 62
     7
370
    25
100
AcDbLine
 10
313.0656996029
 20
96.0427331711
 30
0.0
 11
324.0656996029
 21
96.0427331711
 31
0.0
  0
LINE
  5
C6
330
1F
100
AcDbEntity
  8
0
  6
Continuous
 62
     7
370
    25
100
AcDbLine
 10
313.0656996029
 20
96.0427331711
 30
0.0
 11
313.0656996029
 21
132.79868507
 31
0.0
  0
LINE
  5
C7
330
1F
100
AcDbEntity
  8
0
  6
Continuous
 62
     7
370
    25
100
AcDbLine
 10
324.0656996029
 20
132.79868507
 30
0.0
 11
313.0656996029
 21
132.79868507
 31
0.0
  0
LINE
  5
C8
330
1F
100
AcDbEntity
  8
0
  6
Continuous
 62
     7
370
    25
100
AcDbLine
 10
313.0656996029
 20
83.3395158193
 30
0.0
 11
313.0656996029
 21
96.0427331711
 31
0.0
  0
LINE
  5
C9
330
1F
100
AcDbEntity
  8
0
  6
Continuous
 62
     7
370
    25
100
AcDbLine
 10
313.0656996029
 20
145.5019024218
 30
0.0
 11
324.0656996029
 21
145.5019024218
 31
0.0
  0
LINE
  5
CA
330
1F
100
AcDbEntity
  8
0
  6
Continuous
 62
     7
370
    25
100
AcDbLine
 10
313.0656996029
 20
132.79868507
 30
0.0
 11
313.0656996029
 21
145.5019024218
 31
0.0
  0
LINE
  5
CB
330
1F
100
AcDbEntity
  8
0
  6
Continuous
 62
     7
370
    25
100
AcDbLine
 10
324.0656996029
 20
168.1142841552
 30
0.0
 11
324.0656996029
 21
163.8798783713
 31
0.0
  0
LINE
  5
CC
330
1F
100
AcDbEntity
  8
0
  6
Continuous
 62
     7
370
    25
100
AcDbLine
 10
325.0656996029
 20
168.1142841552
 30
0.0
 11
324.0656996029
 21
168.1142841552
 31
0.0
  0
LINE
  5
CD
330
1F
100
AcDbEntity
  8
0
  6
Continuous
 62
     7
370
    25
100
AcDbLine
 10
324.0656996029
 20
145.5019024218
 30
0.0
 11
324.0656996029
 21
141.2674966379
 31
0.0
  0
LINE
  5
CE
330
1F
100
AcDbEntity
  8
0
  6
Continuous
 62
     7
370
    25
100
AcDbLine
 10
324.0656996029
 20
163.8798783713
 30
0.0
 11
313.0656996029
 21
163.8798783713
 31
0.0
  0
LINE
  5
CF
330
1F
100
AcDbEntity
  8
0
  6
Continuous
 62
     7
370
    25
100
AcDbLine
 10
313.0656996029
 20
145.5019024218
 30
0.0
 11
313.0656996029
 21
163.8798783713
 31
0.0
  0
LINE
  5
D0
330
1F
100
AcDbEntity
  8
0
  6
Continuous
 62
     7
370
    25
100
AcDbLine
 10
457.0656996029
 20
114.4207091205
 30
0.0
 11
457.0656996029
 21
159.4207091205
 31
0.0
  0
LINE
  5
D1
330
1F
100
AcDbEntity
  8
0
  6
Continuous
 62
     7
370
    25
100
AcDbLine
 10
457.0656996029
 20
69.4207091205
 30
0.0
 11
457.0656996029
 21
114.4207091205
 31
0.0
  0
LINE
  5
D2
330
1F
100
AcDbEntity
  8
0
  6
Continuous
 62
     7
370
    25
100
AcDbLine
 10
313.0656996029
 20
64.4207091205
 30
0.0
 11
313.0656996029
 21
64.9615398698
 31
0.0
  0
LINE
  5
D3
330
1F
100
AcDbEntity
  8
0
  6
Continuous
 62
     7
370
    25
100
AcDbLine
 10
313.0656996029
 20
163.8798783713
 30
0.0
 11
313.0656996029
 21
164.4207091205
 31
0.0
  0
LINE
  5
D4
330
1F
100
AcDbEntity
  8
0
  6
Continuous
 62
     1
370
    25
100
AcDbLine
 10
368.5656996029
 20
114.4207091205
 30
0.0
 11
368.5656996029
 21
178.9207091205
 31
0.0
  0
LINE
  5
D5
330
1F
100
AcDbEntity
  8
0
  6
Continuous
 62
     1
370
    25
100
AcDbLine
 10
368.5656996029
 20
49.9207091205
 30
0.0
 11
368.5656996029
 21
114.4207091205
 31
0.0
  0
LINE
  5
D6
330
1F
100
AcDbEntity
  8
0
  6
Continuous
 62
     7
370
    25
100
AcDbLine
 10
-35.1638976728
 20
178.9207091205
 30
0.0
 11
-78.6638976728
 21
178.9207091205
 31
0.0
  0
LINE
  5
D7
330
1F
100
AcDbEntity
  8
0
  6
Continuous
 62
     7
370
    25
100
AcDbLine
 10
-78.6638976728
 20
49.9207091205
 30
0.0
 11
-35.1638976728
 21
49.9207091205
 31
0.0
  0
ARC
  5
D8
330
1F
100
AcDbEntity
  8
0
  6
Continuous
 62
     7
370
    25
100
AcDbCircle
 10
-78.6638976728
 20
178.4207091205
 30
0.0
 40
0.5
100
AcDbArc
 50
90.0
 51
180.0
  0
ARC
  5
D9
330
1F
100
AcDbEntity
  8
0
  6
Continuous
 62
     7
370
    25
100
AcDbCircle
 10
-78.6638976728
 20
50.4207091205
 30
0.0
 40
0.5
100
AcDbArc
 50
180.0
 51
270.0
  0
LINE
  5
DA
330
1F
100
AcDbEntity
  8
0
  6
Continuous
 62
     7
370
    25
100
AcDbLine
 10
-79.1638976728
 20
159.4207091205
 30
0.0
 11
-167.1638976728
 21
159.4207091205
 31
0.0
  0
LINE
  5
DB
330
1F
100
AcDbEntity
  8
0
  6
Continuous
 62
     7
370
    25
100
AcDbLine
 10
-167.1638976728
 20
69.4207091205
 30
0.0
 11
-79.1638976728
 21
69.4207091205
 31
0.0
  0
LINE
  5
DC
330
1F
100
AcDbEntity
  8
0
  6
Continuous
 62
     7
370
    25
100
AcDbLine
 10
-34.1638976728
 20
64.4207091205
 30
0.0
 11
-23.1638976728
 21
64.4207091205
 31
0.0
  0
LINE
  5
DD
330
1F
100
AcDbEntity
  8
0
  6
Continuous
 62
     7
370
    25
100
AcDbLine
 10
-23.1638976728
 20
164.4207091205
 30
0.0
 11
-34.1638976728
 21
164.4207091205
 31
0.0
  0
LINE
  5
DE
330
1F
100
AcDbEntity
  8
0
  6
Continuous
 62
     7
370
    25
100
AcDbLine
 10
-35.1638976728
 20
178.9207091205
 30
0.0
 11
-35.1638976728
 21
49.9207091205
 31
0.0
  0
LINE
  5
DF
330
1F
100
AcDbEntity
  8
0
  6
Continuous
 62
     7
370
    25
100
AcDbLine
 10
-79.1638976728
 20
178.4207091205
 30
0.0
 11
-79.1638976728
 21
50.4207091205
 31
0.0
  0
LINE
  5
E0
330
1F
100
AcDbEntity
  8
0
  6
Continuous
 62
     7
370
    25
100
AcDbLine
 10
-23.1638976728
 20
145.5019024218
 30
0.0
 11
-23.1638976728
 21
132.79868507
 31
0.0
  0
LINE
  5
E1
330
1F
100
AcDbEntity
  8
0
  6
Continuous
 62
     7
370
    25
100
AcDbLine
 10
-23.1638976728
 20
132.79868507
 30
0.0
 11
-34.1638976728
 21
132.79868507
 31
0.0
  0
LINE
  5
E2
330
1F
100
AcDbEntity
  8
0
  6
Continuous
 62
     7
370
    25
100
AcDbLine
 10
-34.1638976728
 20
145.5019024218
 30
0.0
 11
-23.1638976728
 21
145.5019024218
 31
0.0
  0
LINE
  5
E3
330
1F
100
AcDbEntity
  8
0
  6
Continuous
 62
     7
370
    25
100
AcDbLine
 10
-23.1638976728
 20
96.0427331711
 30
0.0
 11
-23.1638976728
 21
83.3395158193
 31
0.0
  0
LINE
  5
E4
330
1F
100
AcDbEntity
  8
0
  6
Continuous
 62
     7
370
    25
100
AcDbLine
 10
-23.1638976728
 20
83.3395158193
 30
0.0
 11
-34.1638976728
 21
83.3395158193
 31
0.0
  0
LINE
  5
E5
330
1F
100
AcDbEntity
  8
0
  6
Continuous
 62
     7
370
    25
100
AcDbLine
 10
-34.1638976728
 20
96.0427331711
 30
0.0
 11
-23.1638976728
 21
96.0427331711
 31
0.0
  0
LINE
  5
E6
330
1F
100
AcDbEntity
  8
0
  6
Continuous
 62
     7
370
    25
100
AcDbLine
 10
-34.1638976728
 20
141.2674966379
 30
0.0
 11
-34.1638976728
 21
145.5019024218
 31
0.0
  0
LINE
  5
E7
330
1F
100
AcDbEntity
  8
0
  6
Continuous
 62
     7
370
    25
100
AcDbLine
 10
-35.1638976728
 20
141.2674966379
 30
0.0
 11
-34.1638976728
 21
141.2674966379
 31
0.0
  0
LINE
  5
E8
330
1F
100
AcDbEntity
  8
0
  6
Continuous
 62
     7
370
    25
100
AcDbLine
 10
-35.1638976728
 20
168.1142841552
 30
0.0
 11
-34.1638976728
 21
168.1142841552
 31
0.0
  0
LINE
  5
E9
330
1F
100
AcDbEntity
  8
0
  6
Continuous
 62
     7
370
    25
100
AcDbLine
 10
-34.1638976728
 20
163.8798783713
 30
0.0
 11
-34.1638976728
 21
168.1142841552
 31
0.0
  0
LINE
  5
EA
330
1F
100
AcDbEntity
  8
0
  6
Continuous
 62
     7
370
    25
100
AcDbLine
 10
-23.1638976728
 20
163.8798783713
 30
0.0
 11
-34.1638976728
 21
163.8798783713
 31
0.0
  0
LINE
  5
EB
330
1F
100
AcDbEntity
  8
0
  6
Continuous
 62
     7
370
    25
100
AcDbLine
 10
-23.1638976728
 20
163.8798783713
 30
0.0
 11
-23.1638976728
 21
145.5019024218
 31
0.0
  0
LINE
  5
EC
330
1F
100
AcDbEntity
  8
0
  6
Continuous
 62
     7
370
    25
100
AcDbLine
 10
-34.1638976728
 20
60.7271340859
 30
0.0
 11
-34.1638976728
 21
64.9615398698
 31
0.0
  0
LINE
  5
ED
330
1F
100
AcDbEntity
  8
0
  6
Continuous
 62
     7
370
    25
100
AcDbLine
 10
-35.1638976728
 20
60.7271340859
 30
0.0
 11
-34.1638976728
 21
60.7271340859
 31
0.0
  0
LINE
  5
EE
330
1F
100
AcDbEntity
  8
0
  6
Continuous
 62
     7
370
    25
100
AcDbLine
 10
-35.1638976728
 20
87.5739216032
 30
0.0
 11
-34.1638976728
 21
87.5739216032
 31
0.0
  0
LINE
  5
EF
330
1F
100
AcDbEntity
  8
0
  6
Continuous
 62
     7
370
    25
100
AcDbLine
 10
-34.1638976728
 20
83.3395158193
 30
0.0
 11
-34.1638976728
 21
87.5739216032
 31
0.0
  0
LINE
  5
F0
330
1F
100
AcDbEntity
  8
0
  6
Continuous
 62
     7
370
    25
100
AcDbLine
 10
-34.1638976728
 20
64.9615398698
 30
0.0
 11
-23.1638976728
 21
64.9615398698
 31
0.0
  0
LINE
  5
F1
330
1F
100
AcDbEntity
  8
0
  6
Continuous
 62
     7
370
    25
100
AcDbLine
 10
-23.1638976728
 20
83.3395158193
 30
0.0
 11
-23.1638976728
 21
64.9615398698
 31
0.0
  0
LINE
  5
F2
330
1F
100
AcDbEntity
  8
0
  6
Continuous
 62
     7
370
    25
100
AcDbLine
 10
-34.1638976728
 20
87.5739216032
 30
0.0
 11
-34.1638976728
 21
96.0427331711
 31
0.0
  0
LINE
  5
F3
330
1F
100
AcDbEntity
  8
0
  6
Continuous
 62
     7
370
    25
100
AcDbLine
 10
-34.1638976728
 20
132.79868507
 30
0.0
 11
-34.1638976728
 21
141.2674966379
 31
0.0
  0
LINE
  5
F4
330
1F
100
AcDbEntity
  8
0
  6
Continuous
 62
     7
370
    25
100
AcDbLine
 10
-23.1638976728
 20
132.79868507
 30
0.0
 11
-23.1638976728
 21
96.0427331711
 31
0.0
  0
LINE
  5
F5
330
1F
100
AcDbEntity
  8
0
  6
Continuous
 62
     7
370
    25
100
AcDbLine
 10
-167.1638976728
 20
159.4207091205
 30
0.0
 11
-167.1638976728
 21
69.4207091205
 31
0.0
  0
LINE
  5
F6
330
1F
100
AcDbEntity
  8
0
  6
Continuous
 62
     7
370
    25
100
AcDbLine
 10
-23.1638976728
 20
64.9615398698
 30
0.0
 11
-23.1638976728
 21
64.4207091205
 31
0.0
  0
LINE
  5
F7
330
1F
100
AcDbEntity
  8
0
  6
Continuous
 62
     7
370
    25
100
AcDbLine
 10
-23.1638976728
 20
164.4207091205
 30
0.0
 11
-23.1638976728
 21
163.8798783713
 31
0.0
  0
LINE
  5
F8
330
1F
100
AcDbEntity
  8
0
  6
Continuous
 62
     1
370
    25
100
AcDbLine
 10
-78.6638976728
 20
178.9207091205
 30
0.0
 11
-78.6638976728
 21
49.9207091205
 31
0.0
  0
LINE
  5
F9
330
1F
100
AcDbEntity
  8
0
  6
Continuous
 62
     7
370
    25
100
AcDbLine
 10
399.3168200601
 20
-59.6276175928
 30
0.0
 11
337.0914233157
 21
-23.7056606726
 31
0.0
  0
LINE
  5
FA
330
1F
100
AcDbEntity
  8
0
  6
Continuous
 62
     7
370
    25
100
AcDbLine
 10
292.095080347
 20
-101.6500582869
 30
0.0
 11
354.3204770915
 21
-137.5720152071
 31
0.0
  0
SPLINE
  5
FB
330
1F
100
AcDbEntity
  8
0
  6
Continuous
 62
     7
370
    25
100
AcDbSpline
210
0.0
220
0.0
230
1.0
 70
     8
 71
     3
 72
    20
 73
    16
 74
     0
 42
0.00000001
 43
0.00000001
 40
0.0
 40
0.0
 40
0.0
 40
0.0
 40
0.0238293387300263
 40
0.1069199994381667
 40
0.190094778983357
 40
0.2733512831693845
 40
0.3566823664066021
 40
0.4400779068158252
 40
0.5235264377039338
 40
0.6070164356538152
 40
0.6905372012031363
 40
0.7740793633586457
 40
0.857635087680529
 40
0.9411980793683176
 40
1.0
 40
1.0
 40
1.0
 40
1.0
 10
401.0501858833312
 20
-40.13654176730363
 30
0.0
 10
400.8757246157034
 20
-40.10847839369333
 30
0.0
 10
400.0929333327359
 20
-39.98256067836603
 30
0.0
 10
398.6495528527931
 20
-39.89037358950992
 30
0.0
 10
396.7235027074471
 20
-39.86372362641494
 30
0.0
 10
394.7497686600205
 20
-39.97820439470456
 30
0.0
 10
392.737785510955
 20
-40.22113722954423
 30
0.0
 10
390.6907757751299
 20
-40.59540648156937
 30
0.0
 10
388.6137661928035
 20
-41.09933063566046
 30
0.0
 10
386.5113954246731
 20
-41.7319120153423
 30
0.0
 10
384.388476480398
 20
-42.49201667814207
 30
0.0
 10
382.2497873287082
 20
-43.37645735706734
 30
0.0
 10
380.1002232775489
 20
-44.38856353027621
 30
0.0
 10
378.1572740468827
 20
-45.39551980028205
 30
0.0
 10
376.9327279354129
 20
-46.11599265074482
 30
0.0
 10
376.4269455619099
 20
-46.41357431381025
 30
0.0
  0
LINE
  5
FC
330
1F
100
AcDbEntity
  8
0
  6
Continuous
 62
     7
370
    25
100
AcDbLine
 10
331.4255899414
 20
-124.3550781857
 30
0.0
 11
331.4173679704
 21
-124.9289780062
 31
0.0
  0
SPLINE
  5
FD
330
1F
100
AcDbEntity
  8
0
  6
Continuous
 62
     7
370
    25
100
AcDbSpline
210
0.0
220
0.0
230
1.0
 70
     8
 71
     3
 72
    20
 73
    16
 74
     0
 42
0.00000001
 43
0.00000001
 40
0.0
 40
0.0
 40
0.0
 40
0.0
 40
0.0453868833134271
 40
0.1315907903765418
 40
0.2178055938068275
 40
0.304019558131721
 40
0.3902272101507703
 40
0.4764218279346618
 40
0.562595020533709
 40
0.6487367217658764
 40
0.7348354023281607
 40
0.8208785992711326
 40
0.9068538498273078
 40
0.9927500640931585
 40
1.0
 40
1.0
 40
1.0
 40
1.0
 10
331.4173679704312
 20
-124.9289780062019
 30
0.0
 10
331.4202107367765
 20
-125.3644485627125
 30
0.0
 10
331.428452806796
 20
-126.6270141000116
 30
0.0
 10
331.5200370911438
 20
-128.6710403792126
 30
0.0
 10
331.7254844496005
 20
-131.0351088191585
 30
0.0
 10
332.0338409353443
 20
-133.3273366778898
 30
0.0
 10
332.4427697859106
 20
-135.543445744256
 30
0.0
 10
332.9519075600503
 20
-137.6781777146128
 30
0.0
 10
333.5601289670033
 20
-139.7266540682097
 30
0.0
 10
334.2659250326462
 20
-141.6844404124931
 30
0.0
 10
335.06856602273
 20
-143.5459307494436
 30
0.0
 10
335.963025707513
 20
-145.3108434085951
 30
0.0
 10
336.959067539104
 20
-146.9600109419256
 30
0.0
 10
337.6896383107213
 20
-148.0623286269294
 30
0.0
 10
338.1124023894847
 20
-148.5816254159307
 30
0.0
 10
338.1453078017756
 20
-148.6220443535884
 30
0.0
  0
LINE
  5
FE
330
1F
100
AcDbEntity
  8
0
  6
Continuous
 62
     7
370
    25
100
AcDbLine
 10
440.1787260755
 20
-60.7006432365
 30
0.0
 11
409.4195810939
 21
-42.9437668043
 31
0.0
  0
LINE
  5
FF
330
1F
100
AcDbEntity
  8
0
  6
Continuous
 62
     7
370
    25
100
AcDbLine
 10
344.9248228389
 20
-154.6640700514
 30
0.0
 11
375.6839678205
 21
-172.4209464836
 31
0.0
  0
LWPOLYLINE
  5
100
330
1F
100
AcDbEntity
  8
0
  6
Continuous
 62
     7
370
    25
100
AcDbPolyline
 90
       96
 70
   128
 43
0.0
 10
288.5717222837
 20
-77.6997687373
 10
288.6286150476
 20
-75.6809889784
 10
288.7990445618
 20
-73.6053498428
 10
289.0822655814
 20
-71.4819275722
 10
289.4770396529
 20
-69.3200073518
 10
289.9816405298
 20
-67.1290427089
 10
290.5938617207
 20
-64.9186141742
 10
291.3110261383
 20
-62.6983873894
 10
292.1299978049
 20
-60.4780708413
 10
293.0471955659
 20
-58.2673734091
 10
294.0586087488
 20
-56.0759619104
 10
295.1598147012
 20
-53.91341883
 10
296.3459981295
 20
-51.7892004185
 10
297.6119721555
 20
-49.7125953426
 10
298.9522009968
 20
-47.6926840679
 10
300.3608241737
 20
-45.7382991526
 10
301.8316821356
 20
-43.8579866244
 10
303.3583431947
 20
-42.0599686118
 10
304.9341316506
 20
-40.35210739
 10
306.5521569815
 20
-38.7418710016
 10
308.2053439742
 20
-37.2363006005
 10
309.8864636626
 20
-35.8419796632
 10
311.5881649382
 20
-34.5650052002
 10
313.303006694
 20
-33.410961096
 10
315.0234903636
 20
-32.3848936919
 10
316.7420927096
 20
-31.4912897195
 10
318.4512987211
 20
-30.7340566816
 10
320.1436344753
 20
-30.1165057657
 10
321.8116998183
 20
-29.6413373647
 10
323.448200725
 20
-29.3106292692
 10
325.0459811931
 20
-29.1258275815
 10
326.5980545354
 20
-29.0877403924
 10
328.0976339298
 20
-29.1965342475
 10
329.5381620974
 20
-29.4517334189
 10
330.913339975
 20
-29.8522219857
 10
332.2171542595
 20
-30.3962487131
 10
333.4439037029
 20
-31.0814347107
 10
334.588224042
 20
-31.9047838345
 10
335.6451114551
 20
-32.8626957883
 10
336.6099444424
 20
-33.9509818669
 10
337.4785040348
 20
-35.164883272
 10
338.2469922422
 20
-36.4990919218
 10
338.9120486611
 20
-37.9477736612
 10
339.4707651692
 20
-39.5045937737
 10
339.9206986412
 20
-41.1627446809
 10
340.2598816325
 20
-42.9149757109
 10
340.4868309823
 20
-44.7536248032
 10
340.6005542988
 20
-46.6706520131
 10
340.6005542988
 20
-48.6576746685
 10
340.4868309823
 20
-50.7060040247
 10
340.2598816325
 20
-52.8066832588
 10
339.9206986412
 20
-54.9505266349
 10
339.4707651692
 20
-57.1281596715
 10
338.9120486611
 20
-59.3300601332
 10
338.2469922422
 20
-61.5465996696
 10
337.4785040348
 20
-63.7680859174
 10
336.6099444424
 20
-65.9848048824
 10
335.6451114551
 20
-68.1870634165
 10
334.588224042
 20
-70.3652316035
 10
333.4439037029
 20
-72.5097848682
 10
332.2171542595
 20
-74.6113456248
 10
330.913339975
 20
-76.6607242829
 10
329.5381620974
 20
-78.6489594309
 10
328.0976339298
 20
-80.5673570224
 10
326.5980545354
 20
-82.407528393
 10
325.0459811931
 20
-84.1614269413
 10
323.448200725
 20
-85.8213833154
 10
321.8116998183
 20
-87.3801389484
 10
320.1436344753
 20
-88.8308777984
 10
318.4512987211
 20
-90.1672561536
 10
316.7420927096
 20
-91.3834303715
 10
315.0234903636
 20
-92.4740824316
 10
313.303006694
 20
-93.4344431901
 10
311.5881649382
 20
-94.2603132336
 10
309.8864636626
 20
-94.9480812427
 10
308.2053439742
 20
-95.4947397827
 10
306.5521569815
 20
-95.897898455
 10
304.9341316506
 20
-96.1557943492
 10
303.3583431947
 20
-96.2672997524
 10
301.8316821356
 20
-96.2319270796
 10
300.3608241737
 20
-96.0498310067
 10
298.9522009968
 20
-95.7218077933
 10
297.6119721555
 20
-95.2492918016
 10
296.3459981295
 20
-94.6343492237
 10
295.1598147012
 20
-93.8796690471
 10
294.0586087488
 20
-92.9885512962
 10
293.0471955659
 20
-91.9648926022
 10
292.1299978049
 20
-90.813169164
 10
291.3110261383
 20
-89.5384171753
 10
290.5938617207
 20
-88.1462108021
 10
289.9816405298
 20
-86.6426378086
 10
289.4770396529
 20
-85.0342729371
 10
289.0822655814
 20
-83.3281491578
 10
288.7990445618
 20
-81.531726916
 10
288.6286150476
 20
-79.652861509
 10
288.5717222837
 20
-77.6997687373
  0
LWPOLYLINE
  5
101
330
1F
100
AcDbEntity
  8
0
  6
Continuous
 62
     7
370
    25
100
AcDbPolyline
 90
      106
 70
   128
 43
0.0
 10
282.773446678
 20
-81.0470419957
 10
282.8304
 20
-78.816699584
 10
283.001056088
 20
-76.5285843133
 10
283.2848040375
 20
-74.1908870425
 10
283.6806281044
 20
-71.811976121
 10
284.1871113414
 20
-69.4003674326
 10
284.8024406698
 20
-66.9646939104
 10
285.5244133704
 20
-64.5136746336
 10
286.3504449683
 20
-62.056083615
 10
287.2775784848
 20
-59.6007183926
 10
288.3024950224
 20
-57.1563685366
 10
289.4215256461
 20
-54.7317841852
 10
290.6306645165
 20
-52.3356447211
 10
291.9255832304
 20
-49.9765277016
 10
293.3016463148
 20
-47.6628781535
 10
294.7539278211
 20
-45.4029783416
 10
296.2772289583
 20
-43.2049181207
 10
297.8660967037
 20
-41.076565976
 10
299.5148433232
 20
-39.0255408557
 10
301.2175667317
 20
-37.0591848974
 10
302.9681716215
 20
-35.1845371452
 10
304.7603912813
 20
-33.4083083515
 10
306.5878100298
 20
-31.7368569544
 10
308.4438861824
 20
-30.1761663159
 10
310.3219754679
 20
-28.7318233037
 10
312.2153548143
 20
-27.4089982908
 10
314.1172464149
 20
-26.2124266474
 10
316.0208419914
 20
-25.1463917895
 10
317.9193271655
 20
-24.2147098451
 10
319.8059058532
 20
-23.4207159939
 10
321.6738245924
 20
-22.7672525278
 10
323.5163967188
 20
-22.2566586763
 10
325.3270263023
 20
-21.890762233
 10
327.099231759
 20
-21.6708730121
 10
328.8266690533
 20
-21.59777816
 10
330.5031544081
 20
-21.6717393373
 10
332.1226864408
 20
-21.8924917822
 10
333.6794676471
 20
-22.2592452581
 10
335.1679251543
 20
-22.770686883
 10
336.5827306709
 20
-23.4249858283
 10
337.9188195603
 20
-24.2197998739
 10
339.1714089711
 20
-25.1522837916
 10
340.3360149582
 20
-26.219099531
 10
341.4084685344
 20
-27.4164281688
 10
342.3849305944
 20
-28.739983579
 10
343.2619056573
 20
-30.1850277768
 10
344.03625438
 20
-31.7463878792
 10
344.7052047952
 20
-33.418474622
 10
345.2663622338
 20
-35.1953023688
 10
345.717717898
 20
-37.0705105373
 10
346.0576560515
 20
-39.037386369
 10
346.2849598041
 20
-41.088888959
 10
346.3988154672
 20
-43.2176744603
 10
346.3988154672
 20
-45.4161223733
 10
346.2849598041
 20
-47.6763628252
 10
346.0576560515
 20
-49.9903047416
 10
345.717717898
 20
-52.3496648112
 10
345.2663622338
 20
-54.7459971371
 10
344.7052047952
 20
-57.1707234716
 10
344.03625438
 20
-59.6151639238
 10
343.2619056573
 20
-62.0705680311
 10
342.3849305944
 20
-64.5281460842
 10
341.4084685344
 20
-66.9791005915
 10
340.3360149582
 20
-69.414657772
 10
339.1714089711
 20
-71.8260989629
 10
337.9188195603
 20
-74.2047918309
 10
336.5827306709
 20
-76.5422212726
 10
335.1679251543
 20
-78.8300198975
 10
333.6794676471
 20
-81.0599979801
 10
332.1226864408
 20
-83.2241727776
 10
330.5031544081
 20
-85.3147971061
 10
328.8266690533
 20
-87.324387073
 10
327.099231759
 20
-89.2457488677
 10
325.3270263023
 20
-91.0720045137
 10
323.5163967188
 20
-92.7966164898
 10
321.6738245924
 20
-94.4134111327
 10
319.8059058532
 20
-95.9166007371
 10
317.9193271655
 20
-97.3008042745
 10
316.0208419914
 20
-98.5610666554
 10
314.1172464149
 20
-99.6928764676
 10
312.2153548143
 20
-100.6921821257
 10
310.3219754679
 20
-101.5554063748
 10
308.4438861824
 20
-102.2794590961
 10
306.5878100298
 20
-102.8617483688
 10
304.7603912813
 20
-103.3001897484
 10
302.9681716215
 20
-103.5932137285
 10
301.2175667317
 20
-103.7397713595
 10
299.5148433232
 20
-103.7393380029
 10
297.8660967037
 20
-103.5919152102
 10
296.2772289583
 20
-103.2980307166
 10
294.7539278211
 20
-102.8587365523
 10
293.3016463148
 20
-102.2756052765
 10
291.9255832304
 20
-101.5507243477
 10
290.6306645165
 20
-100.6866886516
 10
289.4215256461
 20
-99.6865912117
 10
288.3024950224
 20
-98.5540121173
 10
287.2775784848
 20
-97.2930057075
 10
286.3504449683
 20
-95.9080860582
 10
285.5244133704
 20
-94.4042108221
 10
284.8024406698
 20
-92.7867634823
 10
284.1871113414
 20
-91.0615340805
 10
283.6806281044
 20
-89.2346984902
 10
283.2848040375
 20
-87.3127963087
 10
283.001056088
 20
-85.302707447
 10
282.8304
 20
-83.2116275015
 10
282.773446678
 20
-81.0470419957
  0
LWPOLYLINE
  5
102
330
1F
100
AcDbEntity
  8
0
  6
Continuous
 62
     7
370
    25
100
AcDbPolyline
 90
       54
 70
   128
 43
0.0
 10
399.3168200601
 20
-59.6276175928
 10
400.1442163047
 20
-60.1417567941
 10
401.3968057155
 20
-61.0742407118
 10
402.5614117026
 20
-62.1410564512
 10
403.6338652788
 20
-63.338385089
 10
404.6103273388
 20
-64.6619404992
 10
405.4873024017
 20
-66.106984697
 10
406.2616511245
 20
-67.6683447994
 10
406.9306015396
 20
-69.3404315422
 10
407.4917589782
 20
-71.117259289
 10
407.9431146424
 20
-72.9924674575
 10
408.2830527959
 20
-74.9593432892
 10
408.5103565485
 20
-77.0108458792
 10
408.6242122116
 20
-79.1396313805
 10
408.6242122116
 20
-81.3380792935
 10
408.5103565485
 20
-83.5983197454
 10
408.2830527959
 20
-85.9122616618
 10
407.9431146424
 20
-88.2716217314
 10
407.4917589782
 20
-90.6679540573
 10
406.9306015396
 20
-93.0926803918
 10
406.2616511245
 20
-95.537120844
 10
405.4873024017
 20
-97.9925249513
 10
404.6103273388
 20
-100.4501030044
 10
403.6338652788
 20
-102.9010575117
 10
402.5614117026
 20
-105.3366146922
 10
401.3968057155
 20
-107.7480558831
 10
400.1442163047
 20
-110.1267487511
 10
398.8081274153
 20
-112.4641781928
 10
397.3933218987
 20
-114.7519768177
 10
395.9048643915
 20
-116.9819549003
 10
394.3480831852
 20
-119.1461296978
 10
392.7285511525
 20
-121.2367540263
 10
391.0520657977
 20
-123.2463439932
 10
389.3246285034
 20
-125.1677057879
 10
387.5524230467
 20
-126.9939614339
 10
385.7417934632
 20
-128.71857341
 10
383.8992213368
 20
-130.3353680529
 10
382.0313025976
 20
-131.8385576573
 10
380.1447239099
 20
-133.2227611947
 10
378.2462387358
 20
-134.4830235756
 10
376.3426431593
 20
-135.6148333878
 10
374.4407515588
 20
-136.6141390459
 10
372.5473722124
 20
-137.477363295
 10
370.6692829268
 20
-138.2014160163
 10
368.8132067743
 20
-138.783705289
 10
366.9857880257
 20
-139.2221466686
 10
365.1935683659
 20
-139.5151706487
 10
363.4429634761
 20
-139.6617282797
 10
361.7402400676
 20
-139.6612949231
 10
360.0914934481
 20
-139.5138721304
 10
358.5026257027
 20
-139.2199876368
 10
356.9793245655
 20
-138.7806934725
 10
355.5270430593
 20
-138.1975621967
 10
354.3204770915
 20
-137.5720152071
  0
ARC
  5
103
330
1F
100
AcDbEntity
  8
0
  6
Continuous
 62
     7
370
    25
100
AcDbCircle
 10
398.2865297159
 20
-62.2346493457
 30
0.0
 40
22.25870760939356
100
AcDbArc
 50
36.6563038593
 51
82.5475402863
  0
ARC
  5
104
330
1F
100
AcDbEntity
  8
0
  6
Continuous
 62
     7
370
    25
100
AcDbCircle
 10
356.062613441
 20
-135.3696245998
 30
0.0
 40
22.26416729866243
100
AcDbArc
 50
216.8142581823
 51
263.0378854422
  0
LWPOLYLINE
  5
105
330
1F
100
AcDbEntity
  8
0
  6
Continuous
 62
     7
370
    25
100
AcDbPolyline
 90
       65
 70
   128
 43
0.0
 10
440.1787260755
 20
-60.7006432365
 10
441.3646606928
 20
-61.4375760917
 10
442.8693986651
 20
-62.5378674935
 10
444.2872751358
 20
-63.7724684047
 10
445.6147650408
 20
-65.1383094129
 10
446.8485680309
 20
-66.6319948222
 10
447.9856166775
 20
-68.2498110952
 10
449.0230840985
 20
-69.9877360859
 10
449.9583909864
 20
-71.8414490388
 10
450.7892120211
 20
-73.8063413316
 10
451.5134816503
 20
-75.8775279323
 10
452.1293992258
 20
-78.0498595447
 10
452.6354334794
 20
-80.3179354101
 10
453.0303263302
 20
-82.6761167347
 10
453.3130960124
 20
-85.118540708
 10
453.4830395159
 20
-87.6391350793
 10
453.5397343345
 20
-90.2316332537
 10
453.4830395159
 20
-92.8895898724
 10
453.3130960124
 20
-95.6063968364
 10
453.0303263302
 20
-98.3752997354
 10
452.6354334794
 20
-101.1894146407
 10
452.1293992258
 20
-104.0417452192
 10
451.5134816503
 20
-106.9252001276
 10
450.7892120211
 20
-109.8326106427
 10
449.9583909864
 20
-112.7567484838
 10
449.0230840985
 20
-115.6903437837
 10
447.9856166775
 20
-118.6261031621
 10
446.8485680309
 20
-121.5567278586
 10
445.6147650408
 20
-124.4749318785
 10
444.2872751358
 20
-127.3734601068
 10
442.8693986651
 20
-130.2451063456
 10
441.3646606928
 20
-133.08273123
 10
439.7768022348
 20
-135.8792799773
 10
438.1097709573
 20
-138.6277999268
 10
436.3677113627
 20
-141.3214578247
 10
434.5549544857
 20
-143.9535568131
 10
432.6760071255
 20
-146.5175530793
 10
430.7355406413
 20
-149.0070721245
 10
428.7383793384
 20
-151.4159246121
 10
426.6894884747
 20
-153.7381217553
 10
424.5939619155
 20
-155.9678902061
 10
422.4570094701
 20
-158.0996864088
 10
420.283943939
 20
-160.1282103821
 10
418.0801679055
 20
-162.0484188959
 10
415.851160304
 20
-163.8555380092
 10
413.6024627986
 20
-165.5450749392
 10
411.3396660057
 20
-167.1128292308
 10
409.0683955946
 20
-168.5549031999
 10
406.7942983014
 20
-169.8677116234
 10
404.5230278903
 20
-171.0479906526
 10
402.2602310973
 20
-172.092805928
 10
400.011533592
 20
-172.9995598741
 10
397.7825259905
 20
-173.7659981578
 10
395.578749957
 20
-174.3902152927
 10
393.4056844259
 20
-174.8706593766
 10
391.2687319805
 20
-175.20613595
 10
389.1732054213
 20
-175.3958109651
 10
387.1243145576
 20
-175.43921286
 10
385.1271532547
 20
-175.3362337308
 10
383.1866867705
 20
-175.0871295997
 10
381.3077394103
 20
-174.692519779
 10
379.4949825333
 20
-174.1533853307
 10
377.7529229387
 20
-173.4710666281
 10
376.0858916612
 20
-172.647260023
 10
375.6839678205
 20
-172.4209464836
  0
LINE
  5
106
330
1F
100
AcDbEntity
  8
0
  6
Continuous
 62
     7
370
    25
100
AcDbLine
 10
444.1110268802
 20
-130.8506703624
 30
0.0
 11
442.9133065271
 21
-130.1592411201
 31
0.0
  0
LINE
  5
107
330
1F
100
AcDbEntity
  8
0
  6
Continuous
 62
     7
370
    25
100
AcDbLine
 10
444.1110268802
 20
-130.8506703624
 30
0.0
 11
438.9348132198
 21
-137.2898309466
 31
0.0
  0
LINE
  5
108
330
1F
100
AcDbEntity
  8
0
  6
Continuous
 62
     7
370
    25
100
AcDbLine
 10
448.5534975791
 20
-117.0548534607
 30
0.0
 11
449.2970936474
 21
-117.4841223337
 31
0.0
  0
ARC
  5
109
330
1F
100
AcDbEntity
  8
0
  6
Continuous
 62
     7
370
    25
100
AcDbCircle
 10
371.9239420316
 20
-95.1535712991
 30
0.0
 40
80.53110020645882
100
AcDbArc
 50
333.6872309861
 51
343.9014092736
  0
LINE
  5
10A
330
1F
100
AcDbEntity
  8
0
  6
Continuous
 62
     7
370
    25
100
AcDbLine
 10
449.2970936474
 20
-114.8631321871
 30
0.0
 11
449.2970936474
 21
-117.4841223337
 31
0.0
  0
LINE
  5
10B
330
1F
100
AcDbEntity
  8
0
  6
Continuous
 62
     1
370
    25
100
AcDbLine
 10
331.5638145798
 20
-124.7248759782
 30
0.0
 11
331.5645075684
 21
-124.4352736248
 31
0.0
  0
LWPOLYLINE
  5
10C
330
1F
100
AcDbEntity
  8
0
  6
Continuous
 62
     1
370
    25
100
AcDbPolyline
 90
       97
 70
   128
 43
0.0
 10
376.560850537
 20
-46.4908760105
 10
377.9468828918
 20
-45.7061315495
 10
380.2005465555
 20
-44.5350019701
 10
382.445802288
 20
-43.4982860379
 10
384.6770680298
 20
-42.5985611922
 10
386.8887965026
 20
-41.8380642905
 10
389.075489001
 20
-41.2186860482
 10
391.2317090628
 20
-40.7419663369
 10
393.3520959854
 20
-40.4090903572
 10
395.4313781526
 20
-40.220885691
 10
397.4643861415
 20
-40.1778202449
 10
399.4460655737
 20
-40.2800010863
 10
401.3714896821
 20
-40.5271741776
 10
403.2358715589
 20
-40.9187250075
 10
405.0345760571
 20
-41.4536801189
 10
406.7631313137
 20
-42.1307095293
 10
408.4172398681
 20
-42.9481300367
 10
409.9927893458
 20
-43.903909405
 10
411.4858626826
 20
-44.995671416
 10
412.8927478629
 20
-46.2207017775
 10
414.2099471485
 20
-47.575954871
 10
415.4341857743
 20
-49.0580613236
 10
416.5624200903
 20
-50.6633363852
 10
417.5918451282
 20
-52.3877890892
 10
418.5199015752
 20
-54.2271321742
 10
419.3442821367
 20
-56.1767927438
 10
420.0629372727
 20
-58.2319236344
 10
420.6740802933
 20
-60.3874154669
 10
421.1761918007
 20
-62.6379093489
 10
421.5680234667
 20
-64.9778101981
 10
421.8486011358
 20
-67.4013006522
 10
422.0172272478
 20
-69.9023555322
 10
422.0734825717
 20
-72.4747568216
 10
422.0172272478
 20
-75.1121091254
 10
421.8486011358
 20
-77.8078555702
 10
421.5680234667
 20
-80.5552941057
 10
421.1761918007
 20
-83.3475941668
 10
420.6740802933
 20
-86.1778136555
 10
420.0629372727
 20
-89.0389162003
 10
419.3442821367
 20
-91.9237886494
 10
418.5199015752
 20
-94.8252587553
 10
417.5918451282
 20
-97.7361130063
 10
416.5624200903
 20
-100.6491145601
 10
415.4341857743
 20
-103.5570212357
 10
414.2099471485
 20
-106.452603519
 10
412.8927478629
 20
-109.3286625363
 10
411.4858626826
 20
-112.1780479515
 10
409.9927893458
 20
-114.9936757438
 10
408.4172398681
 20
-117.7685458186
 10
406.7631313137
 20
-120.4957594119
 10
405.0345760571
 20
-123.1685362408
 10
403.2358715589
 20
-125.7802313612
 10
401.3714896821
 20
-128.3243516873
 10
399.4460655737
 20
-130.7945721352
 10
397.4643861415
 20
-133.1847513477
 10
395.4313781526
 20
-135.4889469627
 10
393.3520959854
 20
-137.7014303867
 10
391.2317090628
 20
-139.8167010375
 10
389.075489001
 20
-141.8295000188
 10
386.8887965026
 20
-143.7348231952
 10
384.6770680298
 20
-145.5279336332
 10
382.445802288
 20
-147.2043733777
 10
380.2005465555
 20
-148.7599745353
 10
377.9468828918
 20
-150.1908696364
 10
375.6904142598
 20
-151.4935012504
 10
373.436750596
 20
-152.6646308298
 10
371.1914948635
 20
-153.7013467619
 10
368.9602291218
 20
-154.6010716077
 10
366.748500649
 20
-155.3615685093
 10
364.5618081506
 20
-155.9809467517
 10
362.4055880887
 20
-156.4576664629
 10
360.2852011662
 20
-156.7905424427
 10
358.2059189989
 20
-156.9787471089
 10
356.1729110101
 20
-157.021812555
 10
354.1912315778
 20
-156.9196317136
 10
352.2658074694
 20
-156.6724586223
 10
350.4014255926
 20
-156.2809077924
 10
348.6027210945
 20
-155.7459526809
 10
346.8741658379
 20
-155.0689232706
 10
345.2200572834
 20
-154.2515027632
 10
343.6445078057
 20
-153.2957233949
 10
342.1514344689
 20
-152.2039613838
 10
340.7445492886
 20
-150.9789310223
 10
339.4273500031
 20
-149.6236779289
 10
338.2031113773
 20
-148.1415714763
 10
337.0748770613
 20
-146.5362964146
 10
336.0454520233
 20
-144.8118437107
 10
335.1173955764
 20
-142.9725006256
 10
334.2930150149
 20
-141.0228400561
 10
333.5743598789
 20
-138.9677091655
 10
332.9632168582
 20
-136.812217333
 10
332.4611053508
 20
-134.561723451
 10
332.0692736849
 20
-132.2218226018
 10
331.7886960158
 20
-129.7983321476
 10
331.6200699037
 20
-127.2972772676
 10
331.5638145798
 20
-124.7248759782
 10
331.5638145798
 20
-124.7248759782
  0
LWPOLYLINE
  5
10D
330
1F
100
AcDbEntity
  8
0
  6
Continuous
 62
     1
370
    25
100
AcDbPolyline
 90
       55
 70
   128
 43
0.0
 10
416.1431590932
 20
-48.9459002804
 10
417.2264716958
 20
-50.4929346631
 10
418.2639391169
 20
-52.2308596537
 10
419.1992460048
 20
-54.0845726067
 10
420.0300670394
 20
-56.0494648994
 10
420.7543366687
 20
-58.1206515001
 10
421.3702542442
 20
-60.2929831125
 10
421.8762884978
 20
-62.561058978
 10
422.2711813486
 20
-64.9192403026
 10
422.5539510308
 20
-67.3616642759
 10
422.7238945343
 20
-69.8822586472
 10
422.7805893529
 20
-72.4747568216
 10
422.7238945343
 20
-75.1327134403
 10
422.5539510308
 20
-77.8495204042
 10
422.2711813486
 20
-80.6184233033
 10
421.8762884978
 20
-83.4325382086
 10
421.3702542442
 20
-86.284868787
 10
420.7543366687
 20
-89.1683236954
 10
420.0300670394
 20
-92.0757342105
 10
419.1992460048
 20
-94.9998720517
 10
418.2639391169
 20
-97.9334673515
 10
417.2264716958
 20
-100.8692267299
 10
416.0894230492
 20
-103.7998514264
 10
414.8556200591
 20
-106.7180554463
 10
413.5281301542
 20
-109.6165836746
 10
412.1102536834
 20
-112.4882299135
 10
410.6055157112
 20
-115.3258547979
 10
409.0176572532
 20
-118.1224035452
 10
407.3506259757
 20
-120.8709234946
 10
405.6085663811
 20
-123.5645813925
 10
403.7958095041
 20
-126.196680381
 10
401.9168621439
 20
-128.7606766472
 10
399.9763956596
 20
-131.2501956924
 10
397.9792343568
 20
-133.65904818
 10
395.930343493
 20
-135.9812453232
 10
393.8348169339
 20
-138.211013774
 10
391.6978644885
 20
-140.3428099767
 10
389.5247989574
 20
-142.37133395
 10
387.3210229239
 20
-144.2915424638
 10
385.0920153224
 20
-146.0986615771
 10
382.843317817
 20
-147.7881985071
 10
380.5805210241
 20
-149.3559527987
 10
378.309250613
 20
-150.7980267678
 10
376.0351533198
 20
-152.1108351912
 10
373.7638829086
 20
-153.2911142205
 10
371.5010861157
 20
-154.3359294958
 10
369.2523886104
 20
-155.2426834419
 10
367.0233810089
 20
-156.0091217256
 10
364.8196049754
 20
-156.6333388605
 10
362.6465394443
 20
-157.1137829445
 10
360.5095869989
 20
-157.4492595179
 10
358.4140604397
 20
-157.638934533
 10
356.3651695759
 20
-157.6823364279
 10
354.3680082731
 20
-157.5793572986
 10
353.3639064898
 20
-157.4696274571
  0
LINE
  5
10E
330
1F
100
AcDbEntity
  8
0
  6
Continuous
 62
     7
370
    25
100
AcDbLine
 10
80.0628874081
 20
-72.6413189068
 30
0.0
 11
80.0628874081
 21
-116.1413189068
 31
0.0
  0
LINE
  5
10F
330
1F
100
AcDbEntity
  8
0
  6
Continuous
 62
     7
370
    25
100
AcDbLine
 10
209.0628874081
 20
-116.1413189068
 30
0.0
 11
209.0628874081
 21
-72.6413189068
 31
0.0
  0
ARC
  5
110
330
1F
100
AcDbEntity
  8
0
  6
Continuous
 62
     7
370
    25
100
AcDbCircle
 10
80.5628874081
 20
-116.1413189068
 30
0.0
 40
0.5
100
AcDbArc
 50
180.0
 51
270.0
  0
ARC
  5
111
330
1F
100
AcDbEntity
  8
0
  6
Continuous
 62
     7
370
    25
100
AcDbCircle
 10
208.5628874081
 20
-116.1413189068
 30
0.0
 40
0.5
100
AcDbArc
 50
270.0
 51
0.0
  0
LINE
  5
112
330
1F
100
AcDbEntity
  8
0
  6
Continuous
 62
     7
370
    25
100
AcDbLine
 10
99.5628874081
 20
-116.6413189068
 30
0.0
 11
99.5628874081
 21
-204.6413189068
 31
0.0
  0
LINE
  5
113
330
1F
100
AcDbEntity
  8
0
  6
Continuous
 62
     7
370
    25
100
AcDbLine
 10
189.5628874081
 20
-204.6413189068
 30
0.0
 11
189.5628874081
 21
-116.6413189068
 31
0.0
  0
LINE
  5
114
330
1F
100
AcDbEntity
  8
0
  6
Continuous
 62
     7
370
    25
100
AcDbLine
 10
80.0628874081
 20
-72.6413189068
 30
0.0
 11
209.0628874081
 21
-72.6413189068
 31
0.0
  0
LINE
  5
115
330
1F
100
AcDbEntity
  8
0
  6
Continuous
 62
     7
370
    25
100
AcDbLine
 10
80.5628874081
 20
-116.6413189068
 30
0.0
 11
208.5628874081
 21
-116.6413189068
 31
0.0
  0
LINE
  5
116
330
1F
100
AcDbEntity
  8
0
  6
Continuous
 62
     7
370
    25
100
AcDbLine
 10
144.5628874081
 20
-71.6413189068
 30
0.0
 11
137.2286814505
 21
-71.6413189068
 31
0.0
  0
LINE
  5
117
330
1F
100
AcDbEntity
  8
0
  6
Continuous
 62
     7
370
    25
100
AcDbLine
 10
144.5628874081
 20
-72.6413189068
 30
0.0
 11
144.5628874081
 21
-71.6413189068
 31
0.0
  0
LINE
  5
118
330
1F
100
AcDbEntity
  8
0
  6
Continuous
 62
     7
370
    25
100
AcDbLine
 10
98.0628874081
 20
-72.6413189068
 30
0.0
 11
98.0628874081
 21
-71.6413189068
 31
0.0
  0
LINE
  5
119
330
1F
100
AcDbEntity
  8
0
  6
Continuous
 62
     7
370
    25
100
AcDbLine
 10
105.3970933657
 20
-71.6413189068
 30
0.0
 11
98.0628874081
 21
-71.6413189068
 31
0.0
  0
LINE
  5
11A
330
1F
100
AcDbEntity
  8
0
  6
Continuous
 62
     7
370
    25
100
AcDbLine
 10
105.3970933657
 20
-60.6413189068
 30
0.0
 11
105.3970933657
 21
-71.6413189068
 31
0.0
  0
LINE
  5
11B
330
1F
100
AcDbEntity
  8
0
  6
Continuous
 62
     7
370
    25
100
AcDbLine
 10
105.3970933657
 20
-60.6413189068
 30
0.0
 11
137.2286814505
 21
-60.6413189068
 31
0.0
  0
LINE
  5
11C
330
1F
100
AcDbEntity
  8
0
  6
Continuous
 62
     7
370
    25
100
AcDbLine
 10
137.2286814505
 20
-71.6413189068
 30
0.0
 11
137.2286814505
 21
-60.6413189068
 31
0.0
  0
LINE
  5
11D
330
1F
100
AcDbEntity
  8
0
  6
Continuous
 62
     7
370
    25
100
AcDbLine
 10
191.0628874081
 20
-71.6413189068
 30
0.0
 11
183.7286814505
 21
-71.6413189068
 31
0.0
  0
LINE
  5
11E
330
1F
100
AcDbEntity
  8
0
  6
Continuous
 62
     7
370
    25
100
AcDbLine
 10
191.0628874081
 20
-72.6413189068
 30
0.0
 11
191.0628874081
 21
-71.6413189068
 31
0.0
  0
LINE
  5
11F
330
1F
100
AcDbEntity
  8
0
  6
Continuous
 62
     7
370
    25
100
AcDbLine
 10
151.8970933657
 20
-71.6413189068
 30
0.0
 11
144.5628874081
 21
-71.6413189068
 31
0.0
  0
LINE
  5
120
330
1F
100
AcDbEntity
  8
0
  6
Continuous
 62
     7
370
    25
100
AcDbLine
 10
151.8970933657
 20
-60.6413189068
 30
0.0
 11
151.8970933657
 21
-71.6413189068
 31
0.0
  0
LINE
  5
121
330
1F
100
AcDbEntity
  8
0
  6
Continuous
 62
     7
370
    25
100
AcDbLine
 10
151.8970933657
 20
-60.6413189068
 30
0.0
 11
183.7286814505
 21
-60.6413189068
 31
0.0
  0
LINE
  5
122
330
1F
100
AcDbEntity
  8
0
  6
Continuous
 62
     7
370
    25
100
AcDbLine
 10
183.7286814505
 20
-71.6413189068
 30
0.0
 11
183.7286814505
 21
-60.6413189068
 31
0.0
  0
LINE
  5
123
330
1F
100
AcDbEntity
  8
0
  6
Continuous
 62
     7
370
    25
100
AcDbLine
 10
137.2286814505
 20
-60.6413189068
 30
0.0
 11
151.8970933657
 21
-60.6413189068
 31
0.0
  0
LINE
  5
124
330
1F
100
AcDbEntity
  8
0
  6
Continuous
 62
     7
370
    25
100
AcDbLine
 10
99.5628874081
 20
-204.6413189068
 30
0.0
 11
189.5628874081
 21
-204.6413189068
 31
0.0
  0
LINE
  5
125
330
1F
100
AcDbEntity
  8
0
  6
Continuous
 62
     7
370
    25
100
AcDbLine
 10
98.0628874081
 20
-71.6413189068
 30
0.0
 11
98.0628874081
 21
-60.6413189068
 31
0.0
  0
LINE
  5
126
330
1F
100
AcDbEntity
  8
0
  6
Continuous
 62
     7
370
    25
100
AcDbLine
 10
98.0628874081
 20
-60.6413189068
 30
0.0
 11
105.3970933657
 21
-60.6413189068
 31
0.0
  0
LINE
  5
127
330
1F
100
AcDbEntity
  8
0
  6
Continuous
 62
     7
370
    25
100
AcDbLine
 10
191.0628874081
 20
-60.6413189068
 30
0.0
 11
191.0628874081
 21
-71.6413189068
 31
0.0
  0
LINE
  5
128
330
1F
100
AcDbEntity
  8
0
  6
Continuous
 62
     7
370
    25
100
AcDbLine
 10
183.7286814505
 20
-60.6413189068
 30
0.0
 11
191.0628874081
 21
-60.6413189068
 31
0.0
  0
LINE
  5
129
330
1F
100
AcDbEntity
  8
0
  6
Continuous
 62
     1
370
    25
100
AcDbLine
 10
80.0628874081
 20
-116.1413189068
 30
0.0
 11
209.0628874081
 21
-116.1413189068
 31
0.0
  0
ENDSEC
  0
SECTION
  2
OBJECTS
  0
DICTIONARY
  5
C
330
0
100
AcDbDictionary
281
     1
  3
ACAD_GROUP
350
D
  3
ACAD_LAYOUT
350
1A
  3
ACAD_MLINESTYLE
350
17
  3
ACAD_PLOTSETTINGS
350
19
  3
ACAD_PLOTSTYLENAME
350
E
  3
ACAD_SCALELIST
350
47
  3
DWGPROPS
350
12A
  0
DICTIONARY
  5
D
102
{ACAD_REACTORS
330
C
102
}
330
C
100
AcDbDictionary
281
     1
  0
DICTIONARY
  5
1A
102
{ACAD_REACTORS
330
C
102
}
330
C
100
AcDbDictionary
281
     1
  3
Layout1
350
1E
  3
Layout2
350
26
  3
Model
350
22
  0
DICTIONARY
  5
17
102
{ACAD_REACTORS
330
C
102
}
330
C
100
AcDbDictionary
281
     1
  3
Standard
350
18
  0
DICTIONARY
  5
19
102
{ACAD_REACTORS
330
C
102
}
330
C
100
AcDbDictionary
281
     1
  0
ACDBDICTIONARYWDFLT
  5
E
102
{ACAD_REACTORS
330
C
102
}
330
C
100
AcDbDictionary
281
     1
  3
Normal
350
F
100
AcDbDictionaryWithDefault
340
F
  0
DICTIONARY
  5
47
102
{ACAD_REACTORS
330
C
102
}
330
C
100
AcDbDictionary
281
     1
  3
A0
350
48
  3
A1
350
49
  3
A2
350
4A
  3
A3
350
4B
  3
A4
350
4C
  3
A5
350
4D
  3
A6
350
4E
  3
A7
350
4F
  3
A8
350
50
  3
A9
350
51
  3
B0
350
52
  3
B1
350
53
  3
B2
350
54
  3
B3
350
55
  3
B4
350
56
  3
B5
350
57
  3
B6
350
58
  3
B7
350
59
  3
B8
350
5A
  3
B9
350
5B
  3
C0
350
5C
  3
C1
350
5D
  3
C2
350
5E
  3
C3
350
5F
  3
C4
350
60
  3
C5
350
61
  3
C6
350
62
  3
C7
350
63
  3
C8
350
64
  3
C9
350
65
  3
D0
350
66
  3
D1
350
67
  3
D2
350
68
  0
XRECORD
  5
12A
102
{ACAD_REACTORS
330
C
102
}
330
C
100
AcDbXrecord
280
     1
  1
DWGPROPS COOKIE
  2

  3

  4

  6

  7

  8
b.kav
  9

300
=
301
=
302
=
303
=
304
=
305
=
306
=
307
=
308
=
309
=
 40
0.0
 41
2459935.584525764
 42
2459935.584525949
  1

 90
        0
  0
LAYOUT
  5
1E
102
{ACAD_REACTORS
330
1A
102
}
330
1A
100
AcDbPlotSettings
  1

  2
none_device
  4

  6

 40
0.0
 41
0.0
 42
0.0
 43
0.0
 44
0.0
 45
0.0
 46
0.0
 47
0.0
 48
0.0
 49
0.0
140
0.0
141
0.0
142
1.0
143
1.0
 70
   688
 72
     1
 73
     0
 74
     5
  7

 75
    16
147
1.0
148
0.0
149
0.0
100
AcDbLayout
  1
Layout1
 70
     1
 71
     1
 10
0.0
 20
0.0
 11
420.0
 21
297.0
 12
0.0
 22
0.0
 32
0.0
 14
1.0000000000E+20
 24
1.0000000000E+20
 34
1.0000000000E+20
 15
-1.0000000000E+20
 25
-1.0000000000E+20
 35
-1.0000000000E+20
146
0.0
 13
0.0
 23
0.0
 33
0.0
 16
1.0
 26
0.0
 36
0.0
 17
0.0
 27
1.0
 37
0.0
 76
     0
330
1B
  0
LAYOUT
  5
26
102
{ACAD_REACTORS
330
1A
102
}
330
1A
100
AcDbPlotSettings
  1

  2
none_device
  4

  6

 40
0.0
 41
0.0
 42
0.0
 43
0.0
 44
0.0
 45
0.0
 46
0.0
 47
0.0
 48
0.0
 49
0.0
140
0.0
141
0.0
142
1.0
143
1.0
 70
   688
 72
     1
 73
     0
 74
     5
  7

 75
    16
147
1.0
148
0.0
149
0.0
100
AcDbLayout
  1
Layout2
 70
     1
 71
     2
 10
0.0
 20
0.0
 11
0.0
 21
0.0
 12
0.0
 22
0.0
 32
0.0
 14
0.0
 24
0.0
 34
0.0
 15
0.0
 25
0.0
 35
0.0
146
0.0
 13
0.0
 23
0.0
 33
0.0
 16
1.0
 26
0.0
 36
0.0
 17
0.0
 27
1.0
 37
0.0
 76
     0
330
23
  0
LAYOUT
  5
22
102
{ACAD_REACTORS
330
1A
102
}
330
1A
100
AcDbPlotSettings
  1

  2
none_device
  4
Letter_(8.50_x_11.00_Inches)
  6

 40
6.35
 41
6.35
 42
6.35000508
 43
6.35000508
 44
215.9
 45
279.4
 46
0.0
 47
0.0
 48
0.0
 49
0.0
140
0.0
141
0.0
142
1.0
143
1.0
 70
  1712
 72
     1
 73
     0
 74
     0
  7

 75
     0
147
1.0
148
0.0
149
0.0
100
AcDbLayout
  1
Model
 70
     1
 71
     0
 10
0.0
 20
0.0
 11
279.4
 21
215.9
 12
0.0
 22
0.0
 32
0.0
 14
0.0
 24
0.0
 34
0.0
 15
279.4
 25
215.9
 35
0.0
146
0.0
 13
0.0
 23
0.0
 33
0.0
 16
1.0
 26
0.0
 36
0.0
 17
0.0
 27
1.0
 37
0.0
 76
     0
330
1F
331
29
  0
MLINESTYLE
  5
18
102
{ACAD_REACTORS
330
17
102
}
330
17
100
AcDbMlineStyle
  2
Standard
 70
     0
  3

 62
   256
 51
90.0
 52
90.0
 71
     2
 49
0.5
 62
   256
  6
BYLAYER
 49
-0.5
 62
   256
  6
BYLAYER
  0
ACDBPLACEHOLDER
  5
F
102
{ACAD_REACTORS
330
E
102
}
330
E
  0
SCALE
  5
48
102
{ACAD_REACTORS
330
47
102
}
330
47
100
AcDbScale
 70
     0
300
1:1
140
1.0
141
1.0
290
     1
  0
SCALE
  5
49
102
{ACAD_REACTORS
330
47
102
}
330
47
100
AcDbScale
 70
     0
300
1:2
140
1.0
141
2.0
290
     0
  0
SCALE
  5
4A
102
{ACAD_REACTORS
330
47
102
}
330
47
100
AcDbScale
 70
     0
300
1:4
140
1.0
141
4.0
290
     0
  0
SCALE
  5
4B
102
{ACAD_REACTORS
330
47
102
}
330
47
100
AcDbScale
 70
     0
300
1:5
140
1.0
141
5.0
290
     0
  0
SCALE
  5
4C
102
{ACAD_REACTORS
330
47
102
}
330
47
100
AcDbScale
 70
     0
300
1:8
140
1.0
141
8.0
290
     0
  0
SCALE
  5
4D
102
{ACAD_REACTORS
330
47
102
}
330
47
100
AcDbScale
 70
     0
300
1:10
140
1.0
141
10.0
290
     0
  0
SCALE
  5
4E
102
{ACAD_REACTORS
330
47
102
}
330
47
100
AcDbScale
 70
     0
300
1:16
140
1.0
141
16.0
290
     0
  0
SCALE
  5
4F
102
{ACAD_REACTORS
330
47
102
}
330
47
100
AcDbScale
 70
     0
300
1:20
140
1.0
141
20.0
290
     0
  0
SCALE
  5
50
102
{ACAD_REACTORS
330
47
102
}
330
47
100
AcDbScale
 70
     0
300
1:30
140
1.0
141
30.0
290
     0
  0
SCALE
  5
51
102
{ACAD_REACTORS
330
47
102
}
330
47
100
AcDbScale
 70
     0
300
1:40
140
1.0
141
40.0
290
     0
  0
SCALE
  5
52
102
{ACAD_REACTORS
330
47
102
}
330
47
100
AcDbScale
 70
     0
300
1:50
140
1.0
141
50.0
290
     0
  0
SCALE
  5
53
102
{ACAD_REACTORS
330
47
102
}
330
47
100
AcDbScale
 70
     0
300
1:100
140
1.0
141
100.0
290
     0
  0
SCALE
  5
54
102
{ACAD_REACTORS
330
47
102
}
330
47
100
AcDbScale
 70
     0
300
2:1
140
2.0
141
1.0
290
     0
  0
SCALE
  5
55
102
{ACAD_REACTORS
330
47
102
}
330
47
100
AcDbScale
 70
     0
300
4:1
140
4.0
141
1.0
290
     0
  0
SCALE
  5
56
102
{ACAD_REACTORS
330
47
102
}
330
47
100
AcDbScale
 70
     0
300
8:1
140
8.0
141
1.0
290
     0
  0
SCALE
  5
57
102
{ACAD_REACTORS
330
47
102
}
330
47
100
AcDbScale
 70
     0
300
10:1
140
10.0
141
1.0
290
     0
  0
SCALE
  5
58
102
{ACAD_REACTORS
330
47
102
}
330
47
100
AcDbScale
 70
     0
300
100:1
140
100.0
141
1.0
290
     0
  0
SCALE
  5
59
102
{ACAD_REACTORS
330
47
102
}
330
47
100
AcDbScale
 70
     0
300
1/128" = 1'-0"
140
0.0078125
141
12.0
290
     0
  0
SCALE
  5
5A
102
{ACAD_REACTORS
330
47
102
}
330
47
100
AcDbScale
 70
     0
300
1/64" = 1'-0"
140
0.015625
141
12.0
290
     0
  0
SCALE
  5
5B
102
{ACAD_REACTORS
330
47
102
}
330
47
100
AcDbScale
 70
     0
300
1/32" = 1'-0"
140
0.03125
141
12.0
290
     0
  0
SCALE
  5
5C
102
{ACAD_REACTORS
330
47
102
}
330
47
100
AcDbScale
 70
     0
300
1/16" = 1'-0"
140
0.0625
141
12.0
290
     0
  0
SCALE
  5
5D
102
{ACAD_REACTORS
330
47
102
}
330
47
100
AcDbScale
 70
     0
300
3/32" = 1'-0"
140
0.09375
141
12.0
290
     0
  0
SCALE
  5
5E
102
{ACAD_REACTORS
330
47
102
}
330
47
100
AcDbScale
 70
     0
300
1/8" = 1'-0"
140
0.125
141
12.0
290
     0
  0
SCALE
  5
5F
102
{ACAD_REACTORS
330
47
102
}
330
47
100
AcDbScale
 70
     0
300
3/16" = 1'-0"
140
0.1875
141
12.0
290
     0
  0
SCALE
  5
60
102
{ACAD_REACTORS
330
47
102
}
330
47
100
AcDbScale
 70
     0
300
1/4" = 1'-0"
140
0.25
141
12.0
290
     0
  0
SCALE
  5
61
102
{ACAD_REACTORS
330
47
102
}
330
47
100
AcDbScale
 70
     0
300
3/8" = 1'-0"
140
0.375
141
12.0
290
     0
  0
SCALE
  5
62
102
{ACAD_REACTORS
330
47
102
}
330
47
100
AcDbScale
 70
     0
300
1/2" = 1'-0"
140
0.5
141
12.0
290
     0
  0
SCALE
  5
63
102
{ACAD_REACTORS
330
47
102
}
330
47
100
AcDbScale
 70
     0
300
3/4" = 1'-0"
140
0.75
141
12.0
290
     0
  0
SCALE
  5
64
102
{ACAD_REACTORS
330
47
102
}
330
47
100
AcDbScale
 70
     0
300
1" = 1'-0"
140
1.0
141
12.0
290
     0
  0
SCALE
  5
65
102
{ACAD_REACTORS
330
47
102
}
330
47
100
AcDbScale
 70
     0
300
1-1/2" = 1'-0"
140
1.5
141
12.0
290
     0
  0
SCALE
  5
66
102
{ACAD_REACTORS
330
47
102
}
330
47
100
AcDbScale
 70
     0
300
3" = 1'-0"
140
3.0
141
12.0
290
     0
  0
SCALE
  5
67
102
{ACAD_REACTORS
330
47
102
}
330
47
100
AcDbScale
 70
     0
300
6" = 1'-0"
140
6.0
141
12.0
290
     0
  0
SCALE
  5
68
102
{ACAD_REACTORS
330
47
102
}
330
47
100
AcDbScale
 70
     0
300
1'-0" = 1'-0"
140
12.0
141
12.0
290
     0
  0
ENDSEC
  0
EOF
